  0
SECTION
  2
HEADER
  9
$ACADVER
  1
AC1009
  9
$LUNITS
 70
2
  9
$LUPREC
 70
4
  9
$LTSCALE
 40
1.0
  9
$EXTMIN
 10
-104.304196
 20
-233.226338
 30
0
  9
$EXTMAX
 10
99.602644
 20
46.880982
 30
0
  0
ENDSEC
  0
SECTION
  2
TABLES
  0
TABLE
  2
LTYPE
 70
256
  0
LTYPE
  2
AIGENLINE001
 70
64
  3
generate AI->DXF Converter
 72
65
 73
2
 40
0.705560
 49
0.352780
 49
-0.352780
  0
LTYPE
  2
AIGENLINE002
 70
64
  3
generate AI->DXF Converter
 72
65
 73
2
 40
1.058340
 49
0.705560
 49
-0.352780
  0
LTYPE
  2
AIGENLINE003
 70
64
  3
generate AI->DXF Converter
 72
65
 73
2
 40
2.116680
 49
1.763900
 49
-0.352780
  0
ENDTAB
  0
TABLE
  2
LAYER
 70
32
  0
LAYER
  2
01 グリッド
 70
64
 62
7
  6
CONTINUOUS
  0
LAYER
  2
02 市区名
 70
64
 62
7
  6
CONTINUOUS
  0
LAYER
  2
03 施設名・公園名
 70
64
 62
7
  6
CONTINUOUS
  0
LAYER
  2
04 通称名・高速名
 70
64
 62
7
  6
CONTINUOUS
  0
LAYER
  2
05 町名
 70
64
 62
7
  6
CONTINUOUS
  0
LAYER
  2
06 駅名・鉄道名
 70
64
 62
7
  6
CONTINUOUS
  0
LAYER
  2
07 街区符号
 70
64
 62
7
  6
CONTINUOUS
  0
LAYER
  2
08 地下鉄
 70
64
 62
7
  6
CONTINUOUS
  0
LAYER
  2
09 鉄道地下
 70
64
 62
7
  6
CONTINUOUS
  0
LAYER
  2
10 都道府県界
 70
64
 62
7
  6
CONTINUOUS
  0
LAYER
  2
11 市界
 70
64
 62
7
  6
CONTINUOUS
  0
LAYER
  2
12 区界
 70
64
 62
7
  6
CONTINUOUS
  0
LAYER
  2
13 町界
 70
64
 62
7
  6
CONTINUOUS
  0
LAYER
  2
14 公・官庁施設
 70
64
 62
7
  6
CONTINUOUS
  0
LAYER
  2
15 病院
 70
64
 62
7
  6
CONTINUOUS
  0
LAYER
  2
16 学校
 70
64
 62
7
  6
CONTINUOUS
  0
LAYER
  2
17 その他施設
 70
64
 62
7
  6
CONTINUOUS
  0
LAYER
  2
18 高速分離帯
 70
64
 62
7
  6
CONTINUOUS
  0
LAYER
  2
19 鉄道駅
 70
64
 62
7
  6
CONTINUOUS
  0
LAYER
  2
20 鉄道
 70
64
 62
7
  6
CONTINUOUS
  0
LAYER
  2
21 デッキ・歩道橋
 70
64
 62
7
  6
CONTINUOUS
  0
LAYER
  2
22 一般道トンネル
 70
64
 62
7
  6
CONTINUOUS
  0
LAYER
  2
23 園路・他敷地道
 70
64
 62
7
  6
CONTINUOUS
  0
LAYER
  2
24 立体交差
 70
64
 62
7
  6
CONTINUOUS
  0
LAYER
  2
25 分離帯等
 70
64
 62
7
  6
CONTINUOUS
  0
LAYER
  2
26 道路
 70
64
 62
7
  6
CONTINUOUS
  0
LAYER
  2
27 鉄道下駅
 70
64
 62
7
  6
CONTINUOUS
  0
LAYER
  2
28 鉄道下
 70
64
 62
7
  6
CONTINUOUS
  0
LAYER
  2
29 川・池
 70
64
 62
7
  6
CONTINUOUS
  0
LAYER
  2
30 公園・緑地
 70
64
 62
7
  6
CONTINUOUS
  0
LAYER
  2
31 地形
 70
64
 62
7
  6
CONTINUOUS
  0
LAYER
  2
32 海・河川
 70
64
 62
7
  6
CONTINUOUS
  0
ENDTAB
  0
TABLE
  2
STYLE
 70
6
  0
STYLE
  2
STANDARD
 70
0
 40
0
 50
0
 71
0
 41
0
 42
0
  3
TXT
  4
BIGFONT
  0
ENDTAB
  0
ENDSEC
  0
SECTION
  2
BLOCKS
  0
ENDSEC
  0
SECTION
  2
ENTITIES
  0
POLYLINE
  8
01 グリッド
  6
AIGENLINE001
 40
0.070556
 41
0.070556
 62
251
 66
1
 10
0
 20
0
 30
0
 70
128
  0
VERTEX
  8
01 グリッド
 10
28.318347
 20
-159.787291
  0
VERTEX
  8
01 グリッド
 10
28.318347
 20
-9.697833
  0
SEQEND
  0
POLYLINE
  8
01 グリッド
  6
AIGENLINE001
 40
0.070556
 41
0.070556
 62
251
 66
1
 10
0
 20
0
 30
0
 70
128
  0
VERTEX
  8
01 グリッド
 10
-21.681845
 20
-159.787291
  0
VERTEX
  8
01 グリッド
 10
-21.681845
 20
-9.697833
  0
SEQEND
  0
POLYLINE
  8
01 グリッド
  6
AIGENLINE001
 40
0.070556
 41
0.070556
 62
251
 66
1
 10
0
 20
0
 30
0
 70
128
  0
VERTEX
  8
01 グリッド
 10
-71.682123
 20
-159.787291
  0
VERTEX
  8
01 グリッド
 10
-71.682123
 20
-9.697833
  0
SEQEND
  0
POLYLINE
  8
01 グリッド
  6
AIGENLINE001
 40
0.070556
 41
0.070556
 62
251
 66
1
 10
0
 20
0
 30
0
 70
128
  0
VERTEX
  8
01 グリッド
 10
78.317505
 20
-59.778295
  0
VERTEX
  8
01 グリッド
 10
-71.687118
 20
-59.778295
  0
SEQEND
  0
POLYLINE
  8
01 グリッド
  6
AIGENLINE001
 40
0.070556
 41
0.070556
 62
251
 66
1
 10
0
 20
0
 30
0
 70
128
  0
VERTEX
  8
01 グリッド
 10
78.317505
 20
-109.778659
  0
VERTEX
  8
01 グリッド
 10
-71.687118
 20
-109.778659
  0
SEQEND
  0
POLYLINE
  8
01 グリッド
  6
AIGENLINE001
 40
0.070556
 41
0.070556
 62
251
 66
1
 10
0
 20
0
 30
0
 70
128
  0
VERTEX
  8
01 グリッド
 10
78.317505
 20
-159.779023
  0
VERTEX
  8
01 グリッド
 10
-71.687118
 20
-159.779023
  0
SEQEND
  0
TEXT
  8
02 市区名
 10
-63.842845
 20
-58.527890
 11
-63.842845
 21
-58.527890
 40
4.215502
 41
0.500000
 72
1
  1
西区
  0
TEXT
  8
03 施設名・公園名
 10
69.002941
 20
-111.924623
 11
69.002941
 21
-111.924623
 40
0.988142
 41
0.500000
 72
1
  1
名古屋農林総合庁舎
  0
TEXT
  8
03 施設名・公園名
 10
61.054022
 20
-135.235319
 11
61.054022
 21
-135.235319
 40
0.988142
 41
0.500000
 72
1
  1
裁判所合同庁舎
  0
TEXT
  8
03 施設名・公園名
 10
-54.460843
 20
-75.993601
 11
-54.460843
 21
-75.993601
 40
0.988142
 41
0.500000
 72
1
  1
西区役所
  0
TEXT
  8
03 施設名・公園名
 10
27.779358
 20
-57.382561
 11
27.779358
 21
-57.382561
 40
0.988142
 41
0.500000
 72
1
  1
城西公園
  0
TEXT
  8
03 施設名・公園名
 10
20.959059
 20
-71.846541
 11
20.959059
 21
-71.846541
 40
0.988142
 41
0.500000
 72
1
  1
鷹匠公園
  0
TEXT
  8
03 施設名・公園名
 10
70.230609
 20
-84.428970
 11
70.230609
 21
-84.428970
 40
0.988142
 41
0.500000
 72
1
  1
名古屋城
  0
TEXT
  8
03 施設名・公園名
 10
0.795391
 20
-133.148439
 11
0.795391
 21
-133.148439
 40
0.988142
 41
0.500000
 72
1
  1
幅下小学校
  0
TEXT
  8
03 施設名・公園名
 10
30.216434
 20
-50.148504
 11
30.216434
 21
-50.148504
 40
0.988142
 41
0.500000
 72
1
  1
城西小学校
  0
TEXT
  8
03 施設名・公園名
 10
-21.963397
 20
-115.371807
 11
-21.963397
 21
-115.371807
 40
0.988142
 41
0.500000
 72
1
  1
菊井中学校
  0
TEXT
  8
03 施設名・公園名
 10
-55.916319
 20
-23.352899
 11
-55.916319
 21
-23.352899
 40
0.988142
 41
0.500000
 72
1
  1
天神山中学校
  0
TEXT
  8
03 施設名・公園名
 10
-57.062854
 20
-12.769499
 11
-57.062854
 21
-12.769499
 40
0.988142
 41
0.500000
 72
1
  1
押切公園
  0
TEXT
  8
03 施設名・公園名
 10
30.940253
 20
-144.079624
 11
30.940253
 21
-144.079624
 40
0.988142
 41
0.500000
 72
1
  1
丸の内中学校
  0
TEXT
  8
03 施設名・公園名
 10
-45.634797
 20
-117.163440
 11
-45.634797
 21
-117.163440
 40
0.988142
 41
0.500000
 72
1
  1
愛知女子高校
  0
TEXT
  8
03 施設名・公園名
 10
-65.891397
 20
-27.533721
 11
-65.891397
 21
-27.533721
 40
0.988142
 41
0.500000
 72
1
  1
名古屋西高校
  0
TEXT
  8
03 施設名・公園名
 10
-37.348343
 20
-148.067519
 11
-37.348343
 21
-148.067519
 40
0.988142
 41
0.500000
 72
1
  1
中央公園
  0
TEXT
  8
03 施設名・公園名
 10
-16.710713
 20
-45.320344
 11
-16.710713
 21
-45.320344
 40
0.988142
 41
0.500000
 72
1
  1
花ノ木公園
  0
TEXT
  8
03 施設名・公園名
 10
-64.688793
 20
-70.367724
 11
-64.688793
 21
-70.367724
 40
0.988142
 41
0.500000
 72
1
  1
榎公園
  0
TEXT
  8
03 施設名・公園名
 10
71.978144
 20
-134.707527
 11
71.978144
 21
-134.707527
 40
0.988142
 41
0.500000
 72
1
  1
名城病院
  0
TEXT
  8
03 施設名・公園名
 10
13.124863
 20
-15.037075
 11
13.124863
 21
-15.037075
 40
0.988142
 41
0.500000
 72
1
  1
休日急病診療所
  0
POLYLINE
  8
03 施設名・公園名
 40
0.352780
 41
0.352780
 66
1
 10
0
 20
0
 30
0
 70
1
  0
VERTEX
  8
03 施設名・公園名
 10
-71.687118
 20
-159.787291
  0
VERTEX
  8
03 施設名・公園名
 10
78.317505
 20
-159.787291
  0
VERTEX
  8
03 施設名・公園名
 10
78.317505
 20
-9.697833
  0
VERTEX
  8
03 施設名・公園名
 10
-71.687118
 20
-9.697833
  0
SEQEND
  0
TEXT
  8
05 町名
 10
-32.265245
 20
-152.141543
 11
-32.265245
 21
-152.141543
 40
1.402515
 41
0.500000
 62
251
 72
1
  1
新道二丁目
  0
TEXT
  8
05 町名
 10
1.772857
 20
-152.852615
 11
1.772857
 21
-152.852615
 40
1.402515
 41
0.500000
 62
251
 72
1
  1
幅下二丁目
  0
TEXT
  8
05 町名
 10
44.938453
 20
-135.245999
 11
44.938453
 21
-135.245999
 40
1.402515
 41
0.500000
 62
251
 72
1
  1
三の丸一丁目
  0
TEXT
  8
05 町名
 10
1.254970
 20
-123.487986
 11
1.254970
 21
-123.487986
 40
1.402515
 41
0.500000
 62
251
 72
1
  1
幅下一丁目
  0
TEXT
  8
05 町名
 10
-36.800914
 20
-117.854358
 11
-36.800914
 21
-117.854358
 40
1.402515
 41
0.500000
 62
251
 72
1
  1
新道一丁目
  0
TEXT
  8
05 町名
 10
-66.225143
 20
-105.686549
 11
-66.225143
 21
-105.686549
 40
1.402515
 41
0.500000
 62
251
 72
1
  1
菊井一丁目
  0
TEXT
  8
05 町名
 10
13.902770
 20
-97.866477
 11
13.902770
 21
-97.866477
 40
1.402515
 41
0.500000
 62
251
 72
1
  1
城西一丁目
  0
TEXT
  8
05 町名
 10
36.388017
 20
-77.392491
 11
36.388017
 21
-77.392491
 40
1.402515
 41
0.500000
 62
251
 72
1
  1
樋の口町
  0
TEXT
  8
05 町名
 10
58.655187
 20
-87.457745
 11
58.655187
 21
-87.457745
 40
1.402515
 41
0.500000
 62
251
 72
1
  1
本丸
  0
TEXT
  8
05 町名
 10
-5.455515
 20
-89.499666
 11
-5.455515
 21
-89.499666
 40
1.402515
 41
0.500000
 62
251
 72
1
  1
浅間一丁目
  0
TEXT
  8
05 町名
 10
-34.294764
 20
-80.766983
 11
-34.294764
 21
-80.766983
 40
1.402515
 41
0.500000
 62
251
 72
1
  1
浅間二丁目
  0
TEXT
  8
05 町名
 10
5.901830
 20
-79.374639
 11
5.901830
 21
-79.374639
 40
1.402515
 41
0.500000
 62
251
 72
1
  1
城西二丁目
  0
TEXT
  8
05 町名
 10
-63.563360
 20
-72.831155
 11
-63.563360
 21
-72.831155
 40
1.402515
 41
0.500000
 62
251
 72
1
  1
押切一丁目
  0
TEXT
  8
05 町名
 10
-63.557503
 20
-58.348572
 11
-63.557503
 21
-58.348572
 40
1.402515
 41
0.500000
 62
251
 72
1
  1
押切二丁目
  0
TEXT
  8
05 町名
 10
15.710768
 20
-50.326616
 11
15.710768
 21
-50.326616
 40
1.402515
 41
0.500000
 62
251
 72
1
  1
城西三丁目
  0
TEXT
  8
05 町名
 10
-30.088275
 20
-43.805010
 11
-30.088275
 21
-43.805010
 40
1.402515
 41
0.500000
 62
251
 72
1
  1
花ノ木二丁目
  0
TEXT
  8
05 町名
 10
55.040226
 20
-49.430197
 11
55.040226
 21
-49.430197
 40
1.402515
 41
0.500000
 62
251
 72
1
  1
堀端町
  0
TEXT
  8
05 町名
 10
48.486579
 20
-41.694875
 11
48.486579
 21
-41.694875
 40
1.402515
 41
0.500000
 62
251
 72
1
  1
数寄屋町
  0
TEXT
  8
05 町名
 10
-60.174656
 20
-30.759040
 11
-60.174656
 21
-30.759040
 40
1.402515
 41
0.500000
 62
251
 72
1
  1
天神山町
  0
TEXT
  8
05 町名
 10
12.726263
 20
-24.062593
 11
12.726263
 21
-24.062593
 40
1.402515
 41
0.500000
 62
251
 72
1
  1
城西四丁目
  0
TEXT
  8
05 町名
 10
51.329490
 20
-18.708192
 11
51.329490
 21
-18.708192
 40
1.402515
 41
0.500000
 62
251
 72
1
  1
城西五丁目
  0
TEXT
  8
05 町名
 10
-26.638077
 20
-22.345030
 11
-26.638077
 21
-22.345030
 40
1.402515
 41
0.500000
 62
251
 72
1
  1
花ノ木三丁目
  0
TEXT
  8
05 町名
 10
-30.329434
 20
-64.745982
 11
-30.329434
 21
-64.745982
 40
1.402515
 41
0.500000
 62
251
 72
1
  1
花ノ木一丁目
  0
TEXT
  8
07 街区符号
 10
77.267777
 20
-135.445816
 11
77.267777
 21
-135.445816
 40
0.988142
 41
0.500000
 62
44
 72
1
  1
3
  0
TEXT
  8
07 街区符号
 10
-65.084120
 20
-160.914361
 11
-65.084120
 21
-160.914361
 40
0.988142
 41
0.500000
 62
44
 72
1
  1
6
  0
TEXT
  8
07 街区符号
 10
-57.324511
 20
-160.732459
 11
-57.324511
 21
-160.732459
 40
0.988142
 41
0.500000
 62
44
 72
1
  1
5
  0
TEXT
  8
07 街区符号
 10
-45.820748
 20
-159.585924
 11
-45.820748
 21
-159.585924
 40
0.988142
 41
0.500000
 62
44
 72
1
  1
15
  0
TEXT
  8
07 街区符号
 10
-34.331454
 20
-160.369688
 11
-34.331454
 21
-160.369688
 40
0.988142
 41
0.500000
 62
44
 72
1
  1
6
  0
TEXT
  8
07 街区符号
 10
-23.872940
 20
-160.877154
 11
-23.872940
 21
-160.877154
 40
0.988142
 41
0.500000
 62
44
 72
1
  1
5
  0
TEXT
  8
07 街区符号
 10
-6.741922
 20
-160.385019
 11
-6.741922
 21
-160.385019
 40
0.988142
 41
0.500000
 62
44
 72
1
  1
14
  0
TEXT
  8
07 街区符号
 10
-1.313623
 20
-158.962702
 11
-1.313623
 21
-158.962702
 40
0.988142
 41
0.500000
 62
44
 72
1
  1
11
  0
TEXT
  8
07 街区符号
 10
6.297330
 20
-159.902530
 11
6.297330
 21
-159.902530
 40
0.988142
 41
0.500000
 62
44
 72
1
  1
6
  0
TEXT
  8
07 街区符号
 10
24.041750
 20
-157.830292
 11
24.041750
 21
-157.830292
 40
0.988142
 41
0.500000
 62
44
 72
1
  1
11
  0
TEXT
  8
07 街区符号
 10
28.349525
 20
-136.455407
 11
28.349525
 21
-136.455407
 40
0.988142
 41
0.500000
 62
44
 72
1
  1
10
  0
TEXT
  8
07 街区符号
 10
67.576663
 20
-148.435458
 11
67.576663
 21
-148.435458
 40
0.988142
 41
0.500000
 62
44
 72
1
  1
7
  0
TEXT
  8
07 街区符号
 10
-71.758001
 20
-150.864782
 11
-71.758001
 21
-150.864782
 40
0.988142
 41
0.500000
 62
44
 72
1
  1
15
  0
TEXT
  8
07 街区符号
 10
-65.125806
 20
-155.216138
 11
-65.125806
 21
-155.216138
 40
0.988142
 41
0.500000
 62
44
 72
1
  1
7
  0
TEXT
  8
07 街区符号
 10
-57.423902
 20
-155.844527
 11
-57.423902
 21
-155.844527
 40
0.988142
 41
0.500000
 62
44
 72
1
  1
4
  0
TEXT
  8
07 街区符号
 10
-45.908254
 20
-154.322474
 11
-45.908254
 21
-154.322474
 40
0.988142
 41
0.500000
 62
44
 72
1
  1
14
  0
TEXT
  8
07 街区符号
 10
-34.007269
 20
-154.619271
 11
-34.007269
 21
-154.619271
 40
0.988142
 41
0.500000
 62
44
 72
1
  1
7
  0
TEXT
  8
07 街区符号
 10
-23.217334
 20
-154.578963
 11
-23.217334
 21
-154.578963
 40
0.988142
 41
0.500000
 62
44
 72
1
  1
4
  0
TEXT
  8
07 街区符号
 10
-11.897023
 20
-154.677493
 11
-11.897023
 21
-154.677493
 40
0.988142
 41
0.500000
 62
44
 72
1
  1
20
  0
TEXT
  8
07 街区符号
 10
-7.284356
 20
-155.554793
 11
-7.284356
 21
-155.554793
 40
0.988142
 41
0.500000
 62
44
 72
1
  1
15
  0
TEXT
  8
07 街区符号
 10
7.356359
 20
-152.343943
 11
7.356359
 21
-152.343943
 40
0.988142
 41
0.500000
 62
44
 72
1
  1
7
  0
TEXT
  8
07 街区符号
 10
13.041491
 20
-154.111288
 11
13.041491
 21
-154.111288
 40
0.988142
 41
0.500000
 62
44
 72
1
  1
3
  0
TEXT
  8
07 街区符号
 10
48.518274
 20
-149.108634
 11
48.518274
 21
-149.108634
 40
0.988142
 41
0.500000
 62
44
 72
1
  1
6
  0
TEXT
  8
07 街区符号
 10
-65.032099
 20
-149.445911
 11
-65.032099
 21
-149.445911
 40
0.988142
 41
0.500000
 62
44
 72
1
  1
8
  0
TEXT
  8
07 街区符号
 10
-57.079046
 20
-150.553688
 11
-57.079046
 21
-150.553688
 40
0.988142
 41
0.500000
 62
44
 72
1
  1
3
  0
TEXT
  8
07 街区符号
 10
-23.349626
 20
-150.219512
 11
-23.349626
 21
-150.219512
 40
0.988142
 41
0.500000
 62
44
 72
1
  1
3
  0
TEXT
  8
07 街区符号
 10
-6.101647
 20
-149.391133
 11
-6.101647
 21
-149.391133
 40
0.988142
 41
0.500000
 62
44
 72
1
  1
16
  0
TEXT
  8
07 街区符号
 10
-0.580330
 20
-149.925816
 11
-0.580330
 21
-149.925816
 40
0.988142
 41
0.500000
 62
44
 72
1
  1
10
  0
TEXT
  8
07 街区符号
 10
-45.660722
 20
-146.241952
 11
-45.660722
 21
-146.241952
 40
0.988142
 41
0.500000
 62
44
 72
1
  1
13
  0
TEXT
  8
07 街区符号
 10
-37.037938
 20
-147.267735
 11
-37.037938
 21
-147.267735
 40
0.988142
 41
0.500000
 62
44
 72
1
  1
10
  0
TEXT
  8
07 街区符号
 10
-31.301129
 20
-149.641593
 11
-31.301129
 21
-149.641593
 40
0.988142
 41
0.500000
 62
44
 72
1
  1
8
  0
TEXT
  8
07 街区符号
 10
-12.319050
 20
-146.798683
 11
-12.319050
 21
-146.798683
 40
0.988142
 41
0.500000
 62
44
 72
1
  1
19
  0
TEXT
  8
07 街区符号
 10
-56.848051
 20
-143.682919
 11
-56.848051
 21
-143.682919
 40
0.988142
 41
0.500000
 62
44
 72
1
  1
2
  0
TEXT
  8
07 街区符号
 10
-23.262809
 20
-145.399276
 11
-23.262809
 21
-145.399276
 40
0.988142
 41
0.500000
 62
44
 72
1
  1
2
  0
TEXT
  8
07 街区符号
 10
8.057268
 20
-145.411679
 11
8.057268
 21
-145.411679
 40
0.988142
 41
0.500000
 62
44
 72
1
  1
8
  0
TEXT
  8
07 街区符号
 10
13.901737
 20
-146.985408
 11
13.901737
 21
-146.985408
 40
0.988142
 41
0.500000
 62
44
 72
1
  1
2
  0
TEXT
  8
07 街区符号
 10
-66.765682
 20
-144.460826
 11
-66.765682
 21
-144.460826
 40
0.988142
 41
0.500000
 62
44
 72
1
  1
9
  0
TEXT
  8
07 街区符号
 10
-63.150376
 20
-142.880551
 11
-63.150376
 21
-142.880551
 40
0.988142
 41
0.500000
 62
44
 72
1
  1
10
  0
TEXT
  8
07 街区符号
 10
-31.044295
 20
-144.951066
 11
-31.044295
 21
-144.951066
 40
0.988142
 41
0.500000
 62
44
 72
1
  1
9
  0
TEXT
  8
07 街区符号
 10
-6.251165
 20
-142.321581
 11
-6.251165
 21
-142.321581
 40
0.988142
 41
0.500000
 62
44
 72
1
  1
17
  0
TEXT
  8
07 街区符号
 10
-0.397739
 20
-143.625385
 11
-0.397739
 21
-143.625385
 40
0.988142
 41
0.500000
 62
44
 72
1
  1
9
  0
TEXT
  8
07 街区符号
 10
-33.980741
 20
-139.069218
 11
-33.980741
 21
-139.069218
 40
0.988142
 41
0.500000
 62
44
 72
1
  1
11
  0
TEXT
  8
07 街区符号
 10
-23.318792
 20
-139.789247
 11
-23.318792
 21
-139.789247
 40
0.988142
 41
0.500000
 62
44
 72
1
  1
1
  0
TEXT
  8
07 街区符号
 10
-12.006578
 20
-140.627789
 11
-12.006578
 21
-140.627789
 40
0.988142
 41
0.500000
 62
44
 72
1
  1
18
  0
TEXT
  8
07 街区符号
 10
10.779599
 20
-139.034078
 11
10.779599
 21
-139.034078
 40
0.988142
 41
0.500000
 62
44
 72
1
  1
6
  0
TEXT
  8
07 街区符号
 10
21.228123
 20
-131.454820
 11
21.228123
 21
-131.454820
 40
0.988142
 41
0.500000
 62
44
 72
1
  1
1
  0
TEXT
  8
07 街区符号
 10
-64.638839
 20
-136.324493
 11
-64.638839
 21
-136.324493
 40
0.988142
 41
0.500000
 62
44
 72
1
  1
11
  0
TEXT
  8
07 街区符号
 10
-57.323649
 20
-138.144548
 11
-57.323649
 21
-138.144548
 40
0.988142
 41
0.500000
 62
44
 72
1
  1
1
  0
TEXT
  8
07 街区符号
 10
-44.723822
 20
-137.959029
 11
-44.723822
 21
-137.959029
 40
0.988142
 41
0.500000
 62
44
 72
1
  1
12
  0
TEXT
  8
07 街区符号
 10
-1.326542
 20
-133.317939
 11
-1.326542
 21
-133.317939
 40
0.988142
 41
0.500000
 62
44
 72
1
  1
7
  0
TEXT
  8
07 街区符号
 10
48.613704
 20
-133.188403
 11
48.613704
 21
-133.188403
 40
0.988142
 41
0.500000
 62
44
 72
1
  1
5
  0
TEXT
  8
07 街区符号
 10
60.430456
 20
-131.965386
 11
60.430456
 21
-131.965386
 40
0.988142
 41
0.500000
 62
44
 72
1
  1
4
  0
TEXT
  8
07 街区符号
 10
-45.143782
 20
-130.910147
 11
-45.143782
 21
-130.910147
 40
0.988142
 41
0.500000
 62
44
 72
1
  1
26
  0
TEXT
  8
07 街区符号
 10
-34.677861
 20
-132.931052
 11
-34.677861
 21
-132.931052
 40
0.988142
 41
0.500000
 62
44
 72
1
  1
11
  0
TEXT
  8
07 街区符号
 10
-23.464693
 20
-134.089645
 11
-23.464693
 21
-134.089645
 40
0.988142
 41
0.500000
 62
44
 72
1
  1
10
  0
TEXT
  8
07 街区符号
 10
-11.016451
 20
-133.334820
 11
-11.016451
 21
-133.334820
 40
0.988142
 41
0.500000
 62
44
 72
1
  1
15
  0
TEXT
  8
07 街区符号
 10
12.273230
 20
-133.219753
 11
12.273230
 21
-133.219753
 40
0.988142
 41
0.500000
 62
44
 72
1
  1
5
  0
TEXT
  8
07 街区符号
 10
72.017935
 20
-131.032793
 11
72.017935
 21
-131.032793
 40
0.988142
 41
0.500000
 62
44
 72
1
  1
3
  0
TEXT
  8
07 街区符号
 10
-64.940459
 20
-128.465492
 11
-64.940459
 21
-128.465492
 40
0.988142
 41
0.500000
 62
44
 72
1
  1
22
  0
TEXT
  8
07 街区符号
 10
-58.420919
 20
-128.277388
 11
-58.420919
 21
-128.277388
 40
0.988142
 41
0.500000
 62
44
 72
1
  1
5
  0
TEXT
  8
07 街区符号
 10
-54.194449
 20
-127.095713
 11
-54.194449
 21
-127.095713
 40
0.988142
 41
0.500000
 62
44
 72
1
  1
4
  0
TEXT
  8
07 街区符号
 10
-35.027195
 20
-126.092150
 11
-35.027195
 21
-126.092150
 40
0.988142
 41
0.500000
 62
44
 72
1
  1
12
  0
TEXT
  8
07 街区符号
 10
-22.937590
 20
-129.378103
 11
-22.937590
 21
-129.378103
 40
0.988142
 41
0.500000
 62
44
 72
1
  1
9
  0
TEXT
  8
07 街区符号
 10
-11.753017
 20
-125.766587
 11
-11.753017
 21
-125.766587
 40
0.988142
 41
0.500000
 62
44
 72
1
  1
13
  0
TEXT
  8
07 街区符号
 10
-8.325642
 20
-126.517278
 11
-8.325642
 21
-126.517278
 40
0.988142
 41
0.500000
 62
44
 72
1
  1
14
  0
TEXT
  8
07 街区符号
 10
0.785487
 20
-126.821826
 11
0.785487
 21
-126.821826
 40
0.988142
 41
0.500000
 62
44
 72
1
  1
8
  0
TEXT
  8
07 街区符号
 10
15.083412
 20
-126.051842
 11
15.083412
 21
-126.051842
 40
0.988142
 41
0.500000
 62
44
 72
1
  1
4
  0
TEXT
  8
07 街区符号
 10
-47.656995
 20
-126.217208
 11
-47.656995
 21
-126.217208
 40
0.988142
 41
0.500000
 62
44
 72
1
  1
25
  0
TEXT
  8
07 街区符号
 10
-43.704757
 20
-123.346392
 11
-43.704757
 21
-123.346392
 40
0.988142
 41
0.500000
 62
44
 72
1
  1
24
  0
TEXT
  8
07 街区符号
 10
-22.931045
 20
-117.528106
 11
-22.931045
 21
-117.528106
 40
0.988142
 41
0.500000
 62
44
 72
1
  1
6
  0
TEXT
  8
07 街区符号
 10
-18.258777
 20
-121.855001
 11
-18.258777
 21
-121.855001
 40
0.988142
 41
0.500000
 62
44
 72
1
  1
5
  0
TEXT
  8
07 街区符号
 10
6.134376
 20
-115.686863
 11
6.134376
 21
-115.686863
 40
0.988142
 41
0.500000
 62
44
 72
1
  1
9
  0
TEXT
  8
07 街区符号
 10
-64.687415
 20
-122.474777
 11
-64.687415
 21
-122.474777
 40
0.988142
 41
0.500000
 62
44
 72
1
  1
21
  0
TEXT
  8
07 街区符号
 10
-58.056081
 20
-122.876478
 11
-58.056081
 21
-122.876478
 40
0.988142
 41
0.500000
 62
44
 72
1
  1
6
  0
TEXT
  8
07 街区符号
 10
-35.583926
 20
-119.983441
 11
-35.583926
 21
-119.983441
 40
0.988142
 41
0.500000
 62
44
 72
1
  1
13
  0
TEXT
  8
07 街区符号
 10
-27.210052
 20
-121.459846
 11
-27.210052
 21
-121.459846
 40
0.988142
 41
0.500000
 62
44
 72
1
  1
8
  0
TEXT
  8
07 街区符号
 10
-3.243578
 20
-112.922845
 11
-3.243578
 21
-112.922845
 40
0.988142
 41
0.500000
 62
44
 72
1
  1
10
  0
TEXT
  8
07 街区符号
 10
-66.387580
 20
-112.532514
 11
-66.387580
 21
-112.532514
 40
0.988142
 41
0.500000
 62
44
 72
1
  1
19
  0
TEXT
  8
07 街区符号
 10
-63.054257
 20
-112.880126
 11
-63.054257
 21
-112.880126
 40
0.988142
 41
0.500000
 62
44
 72
1
  1
20
  0
TEXT
  8
07 街区符号
 10
-58.094667
 20
-112.706492
 11
-58.094667
 21
-112.706492
 40
0.988142
 41
0.500000
 62
44
 72
1
  1
7
  0
TEXT
  8
07 街区符号
 10
-54.125547
 20
-112.365253
 11
-54.125547
 21
-112.365253
 40
0.988142
 41
0.500000
 62
44
 72
1
  1
3
  0
TEXT
  8
07 街区符号
 10
-45.732208
 20
-113.611697
 11
-45.732208
 21
-113.611697
 40
0.988142
 41
0.500000
 62
44
 72
1
  1
23
  0
TEXT
  8
07 街区符号
 10
-10.370836
 20
-117.622674
 11
-10.370836
 21
-117.622674
 40
0.988142
 41
0.500000
 62
44
 72
1
  1
12
  0
TEXT
  8
07 街区符号
 10
19.040129
 20
-117.690888
 11
19.040129
 21
-117.690888
 40
0.988142
 41
0.500000
 62
44
 72
1
  1
2
  0
TEXT
  8
07 街区符号
 10
71.153383
 20
-115.045038
 11
71.153383
 21
-115.045038
 40
0.988142
 41
0.500000
 62
44
 72
1
  1
2
  0
TEXT
  8
07 街区符号
 10
-35.337601
 20
-115.172679
 11
-35.337601
 21
-115.172679
 40
0.988142
 41
0.500000
 62
44
 72
1
  1
14
  0
TEXT
  8
07 街区符号
 10
-27.798995
 20
-114.601651
 11
-27.798995
 21
-114.601651
 40
0.988142
 41
0.500000
 62
44
 72
1
  1
7
  0
TEXT
  8
07 街区符号
 10
-17.528756
 20
-114.642992
 11
-17.528756
 21
-114.642992
 40
0.988142
 41
0.500000
 62
44
 72
1
  1
4
  0
TEXT
  8
07 街区符号
 10
14.077782
 20
-113.324546
 11
14.077782
 21
-113.324546
 40
0.988142
 41
0.500000
 62
44
 72
1
  1
3
  0
TEXT
  8
07 街区符号
 10
35.031674
 20
-114.409758
 11
35.031674
 21
-114.409758
 40
0.988142
 41
0.500000
 62
44
 72
1
  1
14
  0
TEXT
  8
07 街区符号
 10
-35.471443
 20
-110.182944
 11
-35.471443
 21
-110.182944
 40
0.988142
 41
0.500000
 62
44
 72
1
  1
15
  0
TEXT
  8
07 街区符号
 10
-9.017422
 20
-108.039047
 11
-9.017422
 21
-108.039047
 40
0.988142
 41
0.500000
 62
44
 72
1
  1
11
  0
TEXT
  8
07 街区符号
 10
27.372834
 20
-111.467283
 11
27.372834
 21
-111.467283
 40
0.988142
 41
0.500000
 62
44
 72
1
  1
1
  0
TEXT
  8
07 街区符号
 10
31.156606
 20
-112.786763
 11
31.156606
 21
-112.786763
 40
0.988142
 41
0.500000
 62
44
 72
1
  1
13
  0
TEXT
  8
07 街区符号
 10
-21.810003
 20
-107.124713
 11
-21.810003
 21
-107.124713
 40
0.988142
 41
0.500000
 62
44
 72
1
  1
3
  0
TEXT
  8
07 街区符号
 10
24.800365
 20
-107.134359
 11
24.800365
 21
-107.134359
 40
0.988142
 41
0.500000
 62
44
 72
1
  1
3
  0
TEXT
  8
07 街区符号
 10
17.633143
 20
-104.464738
 11
17.633143
 21
-104.464738
 40
0.988142
 41
0.500000
 62
44
 72
1
  1
4
  0
TEXT
  8
07 街区符号
 10
30.309797
 20
-103.189011
 11
30.309797
 21
-103.189011
 40
0.988142
 41
0.500000
 62
44
 72
1
  1
2
  0
TEXT
  8
07 街区符号
 10
35.160005
 20
-103.375737
 11
35.160005
 21
-103.375737
 40
0.988142
 41
0.500000
 62
44
 72
1
  1
1
  0
TEXT
  8
07 街区符号
 10
-46.360253
 20
-103.523532
 11
-46.360253
 21
-103.523532
 40
0.988142
 41
0.500000
 62
44
 72
1
  1
22
  0
TEXT
  8
07 街区符号
 10
-38.027720
 20
-104.369997
 11
-38.027720
 21
-104.369997
 40
0.988142
 41
0.500000
 62
44
 72
1
  1
17
  0
TEXT
  8
07 街区符号
 10
-30.159245
 20
-103.758145
 11
-30.159245
 21
-103.758145
 40
0.988142
 41
0.500000
 62
44
 72
1
  1
16
  0
TEXT
  8
07 街区符号
 10
-17.122232
 20
-102.721509
 11
-17.122232
 21
-102.721509
 40
0.988142
 41
0.500000
 62
44
 72
1
  1
1
  0
TEXT
  8
07 街区符号
 10
63.505568
 20
-80.175973
 11
63.505568
 21
-80.175973
 40
0.988142
 41
0.500000
 62
44
 72
1
  1
1
  0
TEXT
  8
07 街区符号
 10
-70.478140
 20
-102.621600
 11
-70.478140
 21
-102.621600
 40
0.988142
 41
0.500000
 62
44
 72
1
  1
30
  0
TEXT
  8
07 街区符号
 10
-66.202061
 20
-102.938896
 11
-66.202061
 21
-102.938896
 40
0.988142
 41
0.500000
 62
44
 72
1
  1
18
  0
TEXT
  8
07 街区符号
 10
-62.332505
 20
-102.778009
 11
-62.332505
 21
-102.778009
 40
0.988142
 41
0.500000
 62
44
 72
1
  1
17
  0
TEXT
  8
07 街区符号
 10
-57.956345
 20
-102.720475
 11
-57.956345
 21
-102.720475
 40
0.988142
 41
0.500000
 62
44
 72
1
  1
8
  0
TEXT
  8
07 街区符号
 10
-53.790854
 20
-99.834156
 11
-53.790854
 21
-99.834156
 40
0.988142
 41
0.500000
 62
44
 72
1
  1
2
  0
TEXT
  8
07 街区符号
 10
-38.137792
 20
-100.720413
 11
-38.137792
 21
-100.720413
 40
0.988142
 41
0.500000
 62
44
 72
1
  1
18
  0
TEXT
  8
07 街区符号
 10
-23.138096
 20
-100.588637
 11
-23.138096
 21
-100.588637
 40
0.988142
 41
0.500000
 62
44
 72
1
  1
2
  0
TEXT
  8
07 街区符号
 10
8.921992
 20
-100.618609
 11
8.921992
 21
-100.618609
 40
0.988142
 41
0.500000
 62
44
 72
1
  1
5
  0
TEXT
  8
07 街区符号
 10
18.824120
 20
-99.951979
 11
18.824120
 21
-99.951979
 40
0.988142
 41
0.500000
 62
44
 72
1
  1
9
  0
TEXT
  8
07 街区符号
 10
26.669341
 20
-99.509282
 11
26.669341
 21
-99.509282
 40
0.988142
 41
0.500000
 62
44
 72
1
  1
10
  0
TEXT
  8
07 街区符号
 10
-70.447996
 20
-97.300272
 11
-70.447996
 21
-97.300272
 40
0.988142
 41
0.500000
 62
44
 72
1
  1
31
  0
TEXT
  8
07 街区符号
 10
-66.625810
 20
-97.905235
 11
-66.625810
 21
-97.905235
 40
0.988142
 41
0.500000
 62
44
 72
1
  1
15
  0
TEXT
  8
07 街区符号
 10
-62.076533
 20
-97.747104
 11
-62.076533
 21
-97.747104
 40
0.988142
 41
0.500000
 62
44
 72
1
  1
16
  0
TEXT
  8
07 街区符号
 10
-57.902429
 20
-98.140709
 11
-57.902429
 21
-98.140709
 40
0.988142
 41
0.500000
 62
44
 72
1
  1
9
  0
TEXT
  8
07 街区符号
 10
-46.344233
 20
-98.503307
 11
-46.344233
 21
-98.503307
 40
0.988142
 41
0.500000
 62
44
 72
1
  1
21
  0
TEXT
  8
07 街区符号
 10
-34.710589
 20
-96.230564
 11
-34.710589
 21
-96.230564
 40
0.988142
 41
0.500000
 62
44
 72
1
  1
19
  0
TEXT
  8
07 街区符号
 10
-5.109970
 20
-96.308079
 11
-5.109970
 21
-96.308079
 40
0.988142
 41
0.500000
 62
44
 72
1
  1
1
  0
TEXT
  8
07 街区符号
 10
2.080162
 20
-99.917873
 11
2.080162
 21
-99.917873
 40
0.988142
 41
0.500000
 62
44
 72
1
  1
6
  0
TEXT
  8
07 街区符号
 10
9.689392
 20
-96.086558
 11
9.689392
 21
-96.086558
 40
0.988142
 41
0.500000
 62
44
 72
1
  1
8
  0
TEXT
  8
07 街区符号
 10
-9.254274
 20
-91.567597
 11
-9.254274
 21
-91.567597
 40
0.988142
 41
0.500000
 62
44
 72
1
  1
2
  0
TEXT
  8
07 街区符号
 10
19.575156
 20
-94.448404
 11
19.575156
 21
-94.448404
 40
0.988142
 41
0.500000
 62
44
 72
1
  1
11
  0
TEXT
  8
07 街区符号
 10
35.794768
 20
-90.633626
 11
35.794768
 21
-90.633626
 40
0.988142
 41
0.500000
 62
44
 72
1
  1
2
  0
TEXT
  8
07 街区符号
 10
-70.513281
 20
-91.497317
 11
-70.513281
 21
-91.497317
 40
0.988142
 41
0.500000
 62
44
 72
1
  1
34
  0
TEXT
  8
07 街区符号
 10
-66.036695
 20
-90.548360
 11
-66.036695
 21
-90.548360
 40
0.988142
 41
0.500000
 62
44
 72
1
  1
14
  0
TEXT
  8
07 街区符号
 10
-62.906462
 20
-90.609510
 11
-62.906462
 21
-90.609510
 40
0.988142
 41
0.500000
 62
44
 72
1
  1
13
  0
TEXT
  8
07 街区符号
 10
-58.309470
 20
-91.503174
 11
-58.309470
 21
-91.503174
 40
0.988142
 41
0.500000
 62
44
 72
1
  1
10
  0
TEXT
  8
07 街区符号
 10
-53.513694
 20
-91.583100
 11
-53.513694
 21
-91.583100
 40
0.988142
 41
0.500000
 62
44
 72
1
  1
1
  0
TEXT
  8
07 街区符号
 10
-44.939831
 20
-92.879154
 11
-44.939831
 21
-92.879154
 40
0.988142
 41
0.500000
 62
44
 72
1
  1
20
  0
TEXT
  8
07 街区符号
 10
-20.531176
 20
-92.361008
 11
-20.531176
 21
-92.361008
 40
0.988142
 41
0.500000
 62
44
 72
1
  1
2
  0
TEXT
  8
07 街区符号
 10
-14.624867
 20
-94.604468
 11
-14.624867
 21
-94.604468
 40
0.988142
 41
0.500000
 62
44
 72
1
  1
1
  0
TEXT
  8
07 街区符号
 10
-3.484219
 20
-92.193575
 11
-3.484219
 21
-92.193575
 40
0.988142
 41
0.500000
 62
44
 72
1
  1
3
  0
TEXT
  8
07 街区符号
 10
10.960468
 20
-91.485259
 11
10.960468
 21
-91.485259
 40
0.988142
 41
0.500000
 62
44
 72
1
  1
12
  0
TEXT
  8
07 街区符号
 10
28.340912
 20
-89.284518
 11
28.340912
 21
-89.284518
 40
0.988142
 41
0.500000
 62
44
 72
1
  1
1
  0
TEXT
  8
07 街区符号
 10
-13.926886
 20
-90.292560
 11
-13.926886
 21
-90.292560
 40
0.988142
 41
0.500000
 62
44
 72
1
  1
13
  0
TEXT
  8
07 街区符号
 10
4.617491
 20
-90.204020
 11
4.617491
 21
-90.204020
 40
0.988142
 41
0.500000
 62
44
 72
1
  1
13
  0
TEXT
  8
07 街区符号
 10
22.656641
 20
-89.066787
 11
22.656641
 21
-89.066787
 40
0.988142
 41
0.500000
 62
44
 72
1
  1
3
  0
TEXT
  8
07 街区符号
 10
-36.151854
 20
-85.134702
 11
-36.151854
 21
-85.134702
 40
0.988142
 41
0.500000
 62
44
 72
1
  1
4
  0
TEXT
  8
07 街区符号
 10
-28.811171
 20
-87.392460
 11
-28.811171
 21
-87.392460
 40
0.988142
 41
0.500000
 62
44
 72
1
  1
3
  0
TEXT
  8
07 街区符号
 10
-18.972777
 20
-88.216532
 11
-18.972777
 21
-88.216532
 40
0.988142
 41
0.500000
 62
44
 72
1
  1
12
  0
TEXT
  8
07 街区符号
 10
-2.386777
 20
-86.740299
 11
-2.386777
 21
-86.740299
 40
0.988142
 41
0.500000
 62
44
 72
1
  1
4
  0
TEXT
  8
07 街区符号
 10
10.400120
 20
-85.564481
 11
10.400120
 21
-85.564481
 40
0.988142
 41
0.500000
 62
44
 72
1
  1
7
  0
TEXT
  8
07 街区符号
 10
17.236610
 20
-88.081139
 11
17.236610
 21
-88.081139
 40
0.988142
 41
0.500000
 62
44
 72
1
  1
4
  0
TEXT
  8
07 街区符号
 10
-70.365657
 20
-83.720482
 11
-70.365657
 21
-83.720482
 40
0.988142
 41
0.500000
 62
44
 72
1
  1
35
  0
TEXT
  8
07 街区符号
 10
-64.443156
 20
-84.673918
 11
-64.443156
 21
-84.673918
 40
0.988142
 41
0.500000
 62
44
 72
1
  1
12
  0
TEXT
  8
07 街区符号
 10
-58.459849
 20
-85.767054
 11
-58.459849
 21
-85.767054
 40
0.988142
 41
0.500000
 62
44
 72
1
  1
11
  0
TEXT
  8
07 街区符号
 10
-45.162041
 20
-81.419660
 11
-45.162041
 21
-81.419660
 40
0.988142
 41
0.500000
 62
44
 72
1
  1
5
  0
TEXT
  8
07 街区符号
 10
-16.779099
 20
-82.350531
 11
-16.779099
 21
-82.350531
 40
0.988142
 41
0.500000
 62
44
 72
1
  1
14
  0
TEXT
  8
07 街区符号
 10
-7.831785
 20
-85.025492
 11
-7.831785
 21
-85.025492
 40
0.988142
 41
0.500000
 62
44
 72
1
  1
5
  0
TEXT
  8
07 街区符号
 10
4.898268
 20
-84.849963
 11
4.898268
 21
-84.849963
 40
0.988142
 41
0.500000
 62
44
 72
1
  1
8
  0
TEXT
  8
07 街区符号
 10
27.651889
 20
-82.556204
 11
27.651889
 21
-82.556204
 40
0.988142
 41
0.500000
 62
44
 72
1
  1
2
  0
TEXT
  8
07 街区符号
 10
36.073994
 20
-79.602705
 11
36.073994
 21
-79.602705
 40
0.988142
 41
0.500000
 62
44
 72
1
  1
3
  0
TEXT
  8
07 街区符号
 10
-53.431011
 20
-80.469841
 11
-53.431011
 21
-80.469841
 40
0.988142
 41
0.500000
 62
44
 72
1
  1
1
  0
TEXT
  8
07 街区符号
 10
-26.759603
 20
-82.188438
 11
-26.759603
 21
-82.188438
 40
0.988142
 41
0.500000
 62
44
 72
1
  1
11
  0
TEXT
  8
07 街区符号
 10
-63.713308
 20
-70.546698
 11
-63.713308
 21
-70.546698
 40
0.988142
 41
0.500000
 62
44
 72
1
  1
11
  0
TEXT
  8
07 街区符号
 10
-7.164982
 20
-80.253833
 11
-7.164982
 21
-80.253833
 40
0.988142
 41
0.500000
 62
44
 72
1
  1
10
  0
TEXT
  8
07 街区符号
 10
-1.131204
 20
-81.616721
 11
-1.131204
 21
-81.616721
 40
0.988142
 41
0.500000
 62
44
 72
1
  1
9
  0
TEXT
  8
07 街区符号
 10
8.338906
 20
-81.703710
 11
8.338906
 21
-81.703710
 40
0.988142
 41
0.500000
 62
44
 72
1
  1
6
  0
TEXT
  8
07 街区符号
 10
20.276582
 20
-82.899338
 11
20.276582
 21
-82.899338
 40
0.988142
 41
0.500000
 62
44
 72
1
  1
5
  0
TEXT
  8
07 街区符号
 10
-62.428280
 20
-79.198249
 11
-62.428280
 21
-79.198249
 40
0.988142
 41
0.500000
 62
44
 72
1
  1
3
  0
TEXT
  8
07 街区符号
 10
-58.017151
 20
-79.615452
 11
-58.017151
 21
-79.615452
 40
0.988142
 41
0.500000
 62
44
 72
1
  1
2
  0
TEXT
  8
07 街区符号
 10
-37.718521
 20
-75.538845
 11
-37.718521
 21
-75.538845
 40
0.988142
 41
0.500000
 62
44
 72
1
  1
8
  0
TEXT
  8
07 街区符号
 10
-33.243314
 20
-77.336507
 11
-33.243314
 21
-77.336507
 40
0.988142
 41
0.500000
 62
44
 72
1
  1
9
  0
TEXT
  8
07 街区符号
 10
-25.579651
 20
-78.644963
 11
-25.579651
 21
-78.644963
 40
0.988142
 41
0.500000
 62
44
 72
1
  1
10
  0
TEXT
  8
07 街区符号
 10
-14.363383
 20
-77.223680
 11
-14.363383
 21
-77.223680
 40
0.988142
 41
0.500000
 62
44
 72
1
  1
1
  0
TEXT
  8
07 街区符号
 10
-66.782219
 20
-77.860510
 11
-66.782219
 21
-77.860510
 40
0.988142
 41
0.500000
 62
44
 72
1
  1
4
  0
TEXT
  8
07 街区符号
 10
-42.532039
 20
-74.212475
 11
-42.532039
 21
-74.212475
 40
0.988142
 41
0.500000
 62
44
 72
1
  1
7
  0
TEXT
  8
07 街区符号
 10
-5.606756
 20
-72.609807
 11
-5.606756
 21
-72.609807
 40
0.988142
 41
0.500000
 62
44
 72
1
  1
11
  0
TEXT
  8
07 街区符号
 10
-0.253388
 20
-73.787692
 11
-0.253388
 21
-73.787692
 40
0.988142
 41
0.500000
 62
44
 72
1
  1
12
  0
TEXT
  8
07 街区符号
 10
8.273449
 20
-76.070427
 11
8.273449
 21
-76.070427
 40
0.988142
 41
0.500000
 62
44
 72
1
  1
13
  0
TEXT
  8
07 街区符号
 10
19.703659
 20
-76.128305
 11
19.703659
 21
-76.128305
 40
0.988142
 41
0.500000
 62
44
 72
1
  1
16
  0
TEXT
  8
07 街区符号
 10
27.066391
 20
-73.497958
 11
27.066391
 21
-73.497958
 40
0.988142
 41
0.500000
 62
44
 72
1
  1
17
  0
TEXT
  8
07 街区符号
 10
-70.496399
 20
-76.330878
 11
-70.496399
 21
-76.330878
 40
0.988142
 41
0.500000
 62
44
 72
1
  1
5
  0
TEXT
  8
07 街区符号
 10
-64.299323
 20
-75.383815
 11
-64.299323
 21
-75.383815
 40
0.988142
 41
0.500000
 62
44
 72
1
  1
7
  0
TEXT
  8
07 街区符号
 10
-56.039654
 20
-75.180209
 11
-56.039654
 21
-75.180209
 40
0.988142
 41
0.500000
 62
44
 72
1
  1
8
  0
TEXT
  8
07 街区符号
 10
-46.307543
 20
-72.393109
 11
-46.307543
 21
-72.393109
 40
0.988142
 41
0.500000
 62
44
 72
1
  1
6
  0
TEXT
  8
07 街区符号
 10
-22.779976
 20
-74.907011
 11
-22.779976
 21
-74.907011
 40
0.988142
 41
0.500000
 62
44
 72
1
  1
2
  0
TEXT
  8
07 街区符号
 10
-54.686412
 20
-69.106467
 11
-54.686412
 21
-69.106467
 40
0.988142
 41
0.500000
 62
44
 72
1
  1
9
  0
TEXT
  8
07 街区符号
 10
-33.551652
 20
-70.727395
 11
-33.551652
 21
-70.727395
 40
0.988142
 41
0.500000
 62
44
 72
1
  1
3
  0
TEXT
  8
07 街区符号
 10
-13.907421
 20
-72.212240
 11
-13.907421
 21
-72.212240
 40
0.988142
 41
0.500000
 62
44
 72
1
  1
8
  0
TEXT
  8
07 街区符号
 10
-71.783840
 20
-68.943168
 11
-71.783840
 21
-68.943168
 40
0.988142
 41
0.500000
 62
44
 72
1
  1
12
  0
TEXT
  8
07 街区符号
 10
-21.703894
 20
-69.923993
 11
-21.703894
 21
-69.923993
 40
0.988142
 41
0.500000
 62
44
 72
1
  1
7
  0
TEXT
  8
07 街区符号
 10
8.496003
 20
-71.512537
 11
8.496003
 21
-71.512537
 40
0.988142
 41
0.500000
 62
44
 72
1
  1
14
  0
TEXT
  8
07 街区符号
 10
19.459400
 20
-71.089132
 11
19.459400
 21
-71.089132
 40
0.988142
 41
0.500000
 62
44
 72
1
  1
15
  0
TEXT
  8
07 街区符号
 10
37.562113
 20
-68.388505
 11
37.562113
 21
-68.388505
 40
0.988142
 41
0.500000
 62
44
 72
1
  1
4
  0
TEXT
  8
07 街区符号
 10
-63.607199
 20
-65.251381
 11
-63.607199
 21
-65.251381
 40
0.988142
 41
0.500000
 62
44
 72
1
  1
10
  0
TEXT
  8
07 街区符号
 10
-43.060864
 20
-67.573907
 11
-43.060864
 21
-67.573907
 40
0.988142
 41
0.500000
 62
44
 72
1
  1
4
  0
TEXT
  8
07 街区符号
 10
-32.248364
 20
-66.976006
 11
-32.248364
 21
-66.976006
 40
0.988142
 41
0.500000
 62
44
 72
1
  1
6
  0
TEXT
  8
07 街区符号
 10
-20.786804
 20
-64.893089
 11
-20.786804
 21
-64.893089
 40
0.988142
 41
0.500000
 62
44
 72
1
  1
10
  0
TEXT
  8
07 街区符号
 10
-13.412530
 20
-66.850949
 11
-13.412530
 21
-66.850949
 40
0.988142
 41
0.500000
 62
44
 72
1
  1
9
  0
TEXT
  8
07 街区符号
 10
1.004596
 20
-65.680642
 11
1.004596
 21
-65.680642
 40
0.988142
 41
0.500000
 62
44
 72
1
  1
21
  0
TEXT
  8
07 街区符号
 10
8.543891
 20
-65.489783
 11
8.543891
 21
-65.489783
 40
0.988142
 41
0.500000
 62
44
 72
1
  1
20
  0
TEXT
  8
07 街区符号
 10
19.330380
 20
-64.259187
 11
19.330380
 21
-64.259187
 40
0.988142
 41
0.500000
 62
44
 72
1
  1
19
  0
TEXT
  8
07 街区符号
 10
27.778669
 20
-63.495749
 11
27.778669
 21
-63.495749
 40
0.988142
 41
0.500000
 62
44
 72
1
  1
18
  0
TEXT
  8
07 街区符号
 10
-60.669203
 20
-61.043170
 11
-60.669203
 21
-61.043170
 40
0.988142
 41
0.500000
 62
44
 72
1
  1
2
  0
TEXT
  8
07 街区符号
 10
-52.100507
 20
-60.509177
 11
-52.100507
 21
-60.509177
 40
0.988142
 41
0.500000
 62
44
 72
1
  1
1
  0
TEXT
  8
07 街区符号
 10
-42.192522
 20
-63.371380
 11
-42.192522
 21
-63.371380
 40
0.988142
 41
0.500000
 62
44
 72
1
  1
5
  0
TEXT
  8
07 街区符号
 10
-31.827198
 20
-61.702566
 11
-31.827198
 21
-61.702566
 40
0.988142
 41
0.500000
 62
44
 72
1
  1
11
  0
TEXT
  8
07 街区符号
 10
-4.800426
 20
-63.976687
 11
-4.800426
 21
-63.976687
 40
0.988142
 41
0.500000
 62
44
 72
1
  1
22
  0
TEXT
  8
07 街区符号
 10
-20.332393
 20
-59.700263
 11
-20.332393
 21
-59.700263
 40
0.988142
 41
0.500000
 62
44
 72
1
  1
15
  0
TEXT
  8
07 街区符号
 10
-12.777251
 20
-61.528932
 11
-12.777251
 21
-61.528932
 40
0.988142
 41
0.500000
 62
44
 72
1
  1
16
  0
TEXT
  8
07 街区符号
 10
-69.842344
 20
-56.358844
 11
-69.842344
 21
-56.358844
 40
0.988142
 41
0.500000
 62
44
 72
1
  1
4
  0
TEXT
  8
07 街区符号
 10
-41.533644
 20
-59.309587
 11
-41.533644
 21
-59.309587
 40
0.988142
 41
0.500000
 62
44
 72
1
  1
12
  0
TEXT
  8
07 街区符号
 10
-31.319560
 20
-57.220813
 11
-31.319560
 21
-57.220813
 40
0.988142
 41
0.500000
 62
44
 72
1
  1
14
  0
TEXT
  8
07 街区符号
 10
-4.178583
 20
-53.834951
 11
-4.178583
 21
-53.834951
 40
0.988142
 41
0.500000
 62
44
 72
1
  1
6
  0
TEXT
  8
07 街区符号
 10
1.487946
 20
-59.839446
 11
1.487946
 21
-59.839446
 40
0.988142
 41
0.500000
 62
44
 72
1
  1
5
  0
TEXT
  8
07 街区符号
 10
8.916136
 20
-59.198654
 11
8.916136
 21
-59.198654
 40
0.988142
 41
0.500000
 62
44
 72
1
  1
4
  0
TEXT
  8
07 街区符号
 10
18.913349
 20
-58.030415
 11
18.913349
 21
-58.030415
 40
0.988142
 41
0.500000
 62
44
 72
1
  1
3
  0
TEXT
  8
07 街区符号
 10
27.731299
 20
-57.405815
 11
27.731299
 21
-57.405815
 40
0.988142
 41
0.500000
 62
44
 72
1
  1
2
  0
TEXT
  8
07 街区符号
 10
-60.071819
 20
-56.431536
 11
-60.071819
 21
-56.431536
 40
0.988142
 41
0.500000
 62
44
 72
1
  1
3
  0
TEXT
  8
07 街区符号
 10
-40.276176
 20
-54.926020
 11
-40.276176
 21
-54.926020
 40
0.988142
 41
0.500000
 62
44
 72
1
  1
13
  0
TEXT
  8
07 街区符号
 10
-18.340598
 20
-54.509505
 11
-18.340598
 21
-54.509505
 40
0.988142
 41
0.500000
 62
44
 72
1
  1
2
  0
TEXT
  8
07 街区符号
 10
-11.350283
 20
-53.335237
 11
-11.350283
 21
-53.335237
 40
0.988142
 41
0.500000
 62
44
 72
1
  1
1
  0
TEXT
  8
07 街区符号
 10
-0.213942
 20
-55.524092
 11
-0.213942
 21
-55.524092
 40
0.988142
 41
0.500000
 62
44
 72
1
  1
7
  0
TEXT
  8
07 街区符号
 10
2.615533
 20
-55.519614
 11
2.615533
 21
-55.519614
 40
0.988142
 41
0.500000
 62
44
 72
1
  1
8
  0
TEXT
  8
07 街区符号
 10
33.105509
 20
-56.932112
 11
33.105509
 21
-56.932112
 40
0.988142
 41
0.500000
 62
44
 72
1
  1
1
  0
TEXT
  8
07 街区符号
 10
46.152857
 20
-54.234241
 11
46.152857
 21
-54.234241
 40
0.988142
 41
0.500000
 62
44
 72
1
  1
1
  0
TEXT
  8
07 街区符号
 10
-51.113481
 20
-52.246408
 11
-51.113481
 21
-52.246408
 40
0.988142
 41
0.500000
 62
44
 72
1
  1
8
  0
TEXT
  8
07 街区符号
 10
-28.936228
 20
-51.234233
 11
-28.936228
 21
-51.234233
 40
0.988142
 41
0.500000
 62
44
 72
1
  1
6
  0
TEXT
  8
07 街区符号
 10
18.876486
 20
-53.807046
 11
18.876486
 21
-53.807046
 40
0.988142
 41
0.500000
 62
44
 72
1
  1
12
  0
TEXT
  8
07 街区符号
 10
30.818985
 20
-49.267071
 11
30.818985
 21
-49.267071
 40
0.988142
 41
0.500000
 62
44
 72
1
  1
14
  0
TEXT
  8
07 街区符号
 10
54.583059
 20
-54.290396
 11
54.583059
 21
-54.290396
 40
0.988142
 41
0.500000
 62
44
 72
1
  1
2
  0
TEXT
  8
07 街区符号
 10
59.777779
 20
-52.366126
 11
59.777779
 21
-52.366126
 40
0.988142
 41
0.500000
 62
44
 72
1
  1
6
  0
TEXT
  8
07 街区符号
 10
65.135625
 20
-51.601137
 11
65.135625
 21
-51.601137
 40
0.988142
 41
0.500000
 62
44
 72
1
  1
9
  0
TEXT
  8
07 街区符号
 10
-68.549219
 20
-50.245139
 11
-68.549219
 21
-50.245139
 40
0.988142
 41
0.500000
 62
44
 72
1
  1
6
  0
TEXT
  8
07 街区符号
 10
-60.397383
 20
-50.932268
 11
-60.397383
 21
-50.932268
 40
0.988142
 41
0.500000
 62
44
 72
1
  1
7
  0
TEXT
  8
07 街区符号
 10
-17.855009
 20
-49.670149
 11
-17.855009
 21
-49.670149
 40
0.988142
 41
0.500000
 62
44
 72
1
  1
3
  0
TEXT
  8
07 街区符号
 10
1.741334
 20
-50.318520
 11
1.741334
 21
-50.318520
 40
0.988142
 41
0.500000
 62
44
 72
1
  1
9
  0
TEXT
  8
07 街区符号
 10
8.570074
 20
-49.819151
 11
8.570074
 21
-49.819151
 40
0.988142
 41
0.500000
 62
44
 72
1
  1
10
  0
TEXT
  8
07 街区符号
 10
39.778701
 20
-45.781990
 11
39.778701
 21
-45.781990
 40
0.988142
 41
0.500000
 62
44
 72
1
  1
1
  0
TEXT
  8
07 街区符号
 10
54.385998
 20
-51.731363
 11
54.385998
 21
-51.731363
 40
0.988142
 41
0.500000
 62
44
 72
1
  1
3
  0
TEXT
  8
07 街区符号
 10
-42.663298
 20
-45.272802
 11
-42.663298
 21
-45.272802
 40
0.988142
 41
0.500000
 62
44
 72
1
  1
9
  0
TEXT
  8
07 街区符号
 10
-37.791902
 20
-49.259147
 11
-37.791902
 21
-49.259147
 40
0.988142
 41
0.500000
 62
44
 72
1
  1
7
  0
TEXT
  8
07 街区符号
 10
-26.436451
 20
-47.637186
 11
-26.436451
 21
-47.637186
 40
0.988142
 41
0.500000
 62
44
 72
1
  1
4
  0
TEXT
  8
07 街区符号
 10
-36.667071
 20
-24.706486
 11
-36.667071
 21
-24.706486
 40
0.988142
 41
0.500000
 62
44
 72
1
  1
4
  0
TEXT
  8
07 街区符号
 10
54.011514
 20
-46.712172
 11
54.011514
 21
-46.712172
 40
0.988142
 41
0.500000
 62
44
 72
1
  1
4
  0
TEXT
  8
07 街区符号
 10
59.370910
 20
-46.397288
 11
59.370910
 21
-46.397288
 40
0.988142
 41
0.500000
 62
44
 72
1
  1
5
  0
TEXT
  8
07 街区符号
 10
-64.597153
 20
-33.274837
 11
-64.597153
 21
-33.274837
 40
0.988142
 41
0.500000
 62
44
 72
1
  1
4
  0
TEXT
  8
07 街区符号
 10
-55.369234
 20
-39.528241
 11
-55.369234
 21
-39.528241
 40
0.988142
 41
0.500000
 62
44
 72
1
  1
3
  0
TEXT
  8
07 街区符号
 10
-49.436915
 20
-43.911636
 11
-49.436915
 21
-43.911636
 40
0.988142
 41
0.500000
 62
44
 72
1
  1
1
  0
TEXT
  8
07 街区符号
 10
-36.873778
 20
-45.046458
 11
-36.873778
 21
-45.046458
 40
0.988142
 41
0.500000
 62
44
 72
1
  1
8
  0
TEXT
  8
07 街区符号
 10
-31.885593
 20
-46.748690
 11
-31.885593
 21
-46.748690
 40
0.988142
 41
0.500000
 62
44
 72
1
  1
5
  0
TEXT
  8
07 街区符号
 10
-16.106612
 20
-43.958317
 11
-16.106612
 21
-43.958317
 40
0.988142
 41
0.500000
 62
44
 72
1
  1
14
  0
TEXT
  8
07 街区符号
 10
-9.872845
 20
-45.320861
 11
-9.872845
 21
-45.320861
 40
0.988142
 41
0.500000
 62
44
 72
1
  1
15
  0
TEXT
  8
07 街区符号
 10
-3.513675
 20
-41.363283
 11
-3.513675
 21
-41.363283
 40
0.988142
 41
0.500000
 62
44
 72
1
  1
21
  0
TEXT
  8
07 街区符号
 10
6.355035
 20
-44.495239
 11
6.355035
 21
-44.495239
 40
0.988142
 41
0.500000
 62
44
 72
1
  1
19
  0
TEXT
  8
07 街区符号
 10
18.811029
 20
-42.970774
 11
18.811029
 21
-42.970774
 40
0.988142
 41
0.500000
 62
44
 72
1
  1
18
  0
TEXT
  8
07 街区符号
 10
44.503679
 20
-43.828781
 11
44.503679
 21
-43.828781
 40
0.988142
 41
0.500000
 62
44
 72
1
  1
2
  0
TEXT
  8
07 街区符号
 10
64.695511
 20
-44.372248
 11
64.695511
 21
-44.372248
 40
0.988142
 41
0.500000
 62
44
 72
1
  1
8
  0
TEXT
  8
07 街区符号
 10
-30.505996
 20
-40.588648
 11
-30.505996
 21
-40.588648
 40
0.988142
 41
0.500000
 62
44
 72
1
  1
12
  0
TEXT
  8
07 街区符号
 10
-24.733013
 20
-41.732427
 11
-24.733013
 21
-41.732427
 40
0.988142
 41
0.500000
 62
44
 72
1
  1
13
  0
TEXT
  8
07 街区符号
 10
29.618706
 20
-42.120347
 11
29.618706
 21
-42.120347
 40
0.988142
 41
0.500000
 62
44
 72
1
  1
15
  0
TEXT
  8
07 街区符号
 10
52.332019
 20
-39.616781
 11
52.332019
 21
-39.616781
 40
0.988142
 41
0.500000
 62
44
 72
1
  1
4
  0
TEXT
  8
07 街区符号
 10
-48.896548
 20
-36.910297
 11
-48.896548
 21
-36.910297
 40
0.988142
 41
0.500000
 62
44
 72
1
  1
2
  0
TEXT
  8
07 街区符号
 10
-41.602546
 20
-38.319866
 11
-41.602546
 21
-38.319866
 40
0.988142
 41
0.500000
 62
44
 72
1
  1
10
  0
TEXT
  8
07 街区符号
 10
-35.890197
 20
-39.103630
 11
-35.890197
 21
-39.103630
 40
0.988142
 41
0.500000
 62
44
 72
1
  1
11
  0
TEXT
  8
07 街区符号
 10
-15.081000
 20
-35.225462
 11
-15.081000
 21
-35.225462
 40
0.988142
 41
0.500000
 62
44
 72
1
  1
18
  0
TEXT
  8
07 街区符号
 10
-9.059797
 20
-39.178734
 11
-9.059797
 21
-39.178734
 40
0.988142
 41
0.500000
 62
44
 72
1
  1
16
  0
TEXT
  8
07 街区符号
 10
6.270286
 20
-39.275714
 11
6.270286
 21
-39.275714
 40
0.988142
 41
0.500000
 62
44
 72
1
  1
20
  0
TEXT
  8
07 街区符号
 10
18.475991
 20
-37.691477
 11
18.475991
 21
-37.691477
 40
0.988142
 41
0.500000
 62
44
 72
1
  1
17
  0
TEXT
  8
07 街区符号
 10
29.392017
 20
-36.221273
 11
29.392017
 21
-36.221273
 40
0.988142
 41
0.500000
 62
44
 72
1
  1
16
  0
TEXT
  8
07 街区符号
 10
41.481967
 20
-39.637279
 11
41.481967
 21
-39.637279
 40
0.988142
 41
0.500000
 62
44
 72
1
  1
3
  0
TEXT
  8
07 街区符号
 10
64.419213
 20
-38.602883
 11
64.419213
 21
-38.602883
 40
0.988142
 41
0.500000
 62
44
 72
1
  1
9
  0
TEXT
  8
07 街区符号
 10
-35.285235
 20
-33.791949
 11
-35.285235
 21
-33.791949
 40
0.988142
 41
0.500000
 62
44
 72
1
  1
22
  0
TEXT
  8
07 街区符号
 10
-25.470096
 20
-35.674016
 11
-25.470096
 21
-35.674016
 40
0.988142
 41
0.500000
 62
44
 72
1
  1
19
  0
TEXT
  8
07 街区符号
 10
-8.945075
 20
-33.748196
 11
-8.945075
 21
-33.748196
 40
0.988142
 41
0.500000
 62
44
 72
1
  1
17
  0
TEXT
  8
07 街区符号
 10
-3.059609
 20
-32.111765
 11
-3.059609
 21
-32.111765
 40
0.988142
 41
0.500000
 62
44
 72
1
  1
4
  0
TEXT
  8
07 街区符号
 10
5.851015
 20
-33.732348
 11
5.851015
 21
-33.732348
 40
0.988142
 41
0.500000
 62
44
 72
1
  1
3
  0
TEXT
  8
07 街区符号
 10
40.500798
 20
-35.669882
 11
40.500798
 21
-35.669882
 40
0.988142
 41
0.500000
 62
44
 72
1
  1
8
  0
TEXT
  8
07 街区符号
 10
51.438356
 20
-34.699220
 11
51.438356
 21
-34.699220
 40
0.988142
 41
0.500000
 62
44
 72
1
  1
7
  0
TEXT
  8
07 街区符号
 10
61.607308
 20
-34.270475
 11
61.607308
 21
-34.270475
 40
0.988142
 41
0.500000
 62
44
 72
1
  1
5
  0
TEXT
  8
07 街区符号
 10
-40.894919
 20
-30.327711
 11
-40.894919
 21
-30.327711
 40
0.988142
 41
0.500000
 62
44
 72
1
  1
23
  0
TEXT
  8
07 街区符号
 10
-24.592969
 20
-30.981939
 11
-24.592969
 21
-30.981939
 40
0.988142
 41
0.500000
 62
44
 72
1
  1
20
  0
TEXT
  8
07 街区符号
 10
17.361324
 20
-32.082482
 11
17.361324
 21
-32.082482
 40
0.988142
 41
0.500000
 62
44
 72
1
  1
2
  0
TEXT
  8
07 街区符号
 10
28.827018
 20
-30.944215
 11
28.827018
 21
-30.944215
 40
0.988142
 41
0.500000
 62
44
 72
1
  1
1
  0
TEXT
  8
07 街区符号
 10
57.364130
 20
-33.102581
 11
57.364130
 21
-33.102581
 40
0.988142
 41
0.500000
 62
44
 72
1
  1
6
  0
TEXT
  8
07 街区符号
 10
-48.074888
 20
-30.387656
 11
-48.074888
 21
-30.387656
 40
0.988142
 41
0.500000
 62
44
 72
1
  1
5
  0
TEXT
  8
07 街区符号
 10
-34.328181
 20
-29.149137
 11
-34.328181
 21
-29.149137
 40
0.988142
 41
0.500000
 62
44
 72
1
  1
21
  0
TEXT
  8
07 街区符号
 10
-12.213285
 20
-27.197305
 11
-12.213285
 21
-27.197305
 40
0.988142
 41
0.500000
 62
44
 72
1
  1
1
  0
TEXT
  8
07 街区符号
 10
39.991954
 20
-28.941224
 11
39.991954
 21
-28.941224
 40
0.988142
 41
0.500000
 62
44
 72
1
  1
6
  0
TEXT
  8
07 街区符号
 10
48.357043
 20
-27.227622
 11
48.357043
 21
-27.227622
 40
0.988142
 41
0.500000
 62
44
 72
1
  1
5
  0
TEXT
  8
07 街区符号
 10
65.353356
 20
-29.370141
 11
65.353356
 21
-29.370141
 40
0.988142
 41
0.500000
 62
44
 72
1
  1
1
  0
TEXT
  8
07 街区符号
 10
-23.187189
 20
-26.008051
 11
-23.187189
 21
-26.008051
 40
0.988142
 41
0.500000
 62
44
 72
1
  1
2
  0
TEXT
  8
07 街区符号
 10
5.127885
 20
-27.658779
 11
5.127885
 21
-27.658779
 40
0.988142
 41
0.500000
 62
44
 72
1
  1
6
  0
TEXT
  8
07 街区符号
 10
17.194408
 20
-26.384947
 11
17.194408
 21
-26.384947
 40
0.988142
 41
0.500000
 62
44
 72
1
  1
9
  0
TEXT
  8
07 街区符号
 10
56.901967
 20
-28.883862
 11
56.901967
 21
-28.883862
 40
0.988142
 41
0.500000
 62
44
 72
1
  1
4
  0
TEXT
  8
07 街区符号
 10
-46.979685
 20
-25.044624
 11
-46.979685
 21
-25.044624
 40
0.988142
 41
0.500000
 62
44
 72
1
  1
6
  0
TEXT
  8
07 街区符号
 10
-40.102887
 20
-23.935468
 11
-40.102887
 21
-23.935468
 40
0.988142
 41
0.500000
 62
44
 72
1
  1
5
  0
TEXT
  8
07 街区符号
 10
-31.952084
 20
-25.076836
 11
-31.952084
 21
-25.076836
 40
0.988142
 41
0.500000
 62
44
 72
1
  1
3
  0
TEXT
  8
07 街区符号
 10
-3.388962
 20
-25.102502
 11
-3.388962
 21
-25.102502
 40
0.988142
 41
0.500000
 62
44
 72
1
  1
5
  0
TEXT
  8
07 街区符号
 10
4.156189
 20
-23.381494
 11
4.156189
 21
-23.381494
 40
0.988142
 41
0.500000
 62
44
 72
1
  1
7
  0
TEXT
  8
07 街区符号
 10
28.118702
 20
-25.485082
 11
28.118702
 21
-25.485082
 40
0.988142
 41
0.500000
 62
44
 72
1
  1
10
  0
TEXT
  8
07 街区符号
 10
39.587497
 20
-23.822124
 11
39.587497
 21
-23.822124
 40
0.988142
 41
0.500000
 62
44
 72
1
  1
7
  0
TEXT
  8
07 街区符号
 10
57.140886
 20
-24.823103
 11
57.140886
 21
-24.823103
 40
0.988142
 41
0.500000
 62
44
 72
1
  1
3
  0
TEXT
  8
07 街区符号
 10
67.421460
 20
-24.914915
 11
67.421460
 21
-24.914915
 40
0.988142
 41
0.500000
 62
44
 72
1
  1
2
  0
TEXT
  8
07 街区符号
 10
-21.933339
 20
-20.104498
 11
-21.933339
 21
-20.104498
 40
0.988142
 41
0.500000
 62
44
 72
1
  1
11
  0
TEXT
  8
07 街区符号
 10
-12.398460
 20
-22.528483
 11
-12.398460
 21
-22.528483
 40
0.988142
 41
0.500000
 62
44
 72
1
  1
12
  0
TEXT
  8
07 街区符号
 10
16.662482
 20
-22.096293
 11
16.662482
 21
-22.096293
 40
0.988142
 41
0.500000
 62
44
 72
1
  1
8
  0
TEXT
  8
07 街区符号
 10
27.884262
 20
-20.971979
 11
27.884262
 21
-20.971979
 40
0.988142
 41
0.500000
 62
44
 72
1
  1
11
  0
TEXT
  8
07 街区符号
 10
8.304972
 20
-55.015249
 11
8.304972
 21
-55.015249
 40
0.988142
 41
0.500000
 62
44
 72
1
  1
11
  0
TEXT
  8
07 街区符号
 10
48.050083
 20
-21.018315
 11
48.050083
 21
-21.018315
 40
0.988142
 41
0.500000
 62
44
 72
1
  1
9
  0
TEXT
  8
07 街区符号
 10
56.828931
 20
-20.614031
 11
56.828931
 21
-20.614031
 40
0.988142
 41
0.500000
 62
44
 72
1
  1
10
  0
TEXT
  8
07 街区符号
 10
68.050539
 20
-21.102549
 11
68.050539
 21
-21.102549
 40
0.988142
 41
0.500000
 62
44
 72
1
  1
11
  0
TEXT
  8
07 街区符号
 10
-39.433500
 20
-16.583416
 11
-39.433500
 21
-16.583416
 40
0.988142
 41
0.500000
 62
44
 72
1
  1
6
  0
TEXT
  8
07 街区符号
 10
-35.814922
 20
-16.033403
 11
-35.814922
 21
-16.033403
 40
0.988142
 41
0.500000
 62
44
 72
1
  1
7
  0
TEXT
  8
07 街区符号
 10
-30.637083
 20
-18.858744
 11
-30.637083
 21
-18.858744
 40
0.988142
 41
0.500000
 62
44
 72
1
  1
8
  0
TEXT
  8
07 街区符号
 10
-3.880235
 20
-17.574060
 11
-3.880235
 21
-17.574060
 40
0.988142
 41
0.500000
 62
44
 72
1
  1
19
  0
TEXT
  8
07 街区符号
 10
1.492080
 20
-18.428793
 11
1.492080
 21
-18.428793
 40
0.988142
 41
0.500000
 62
44
 72
1
  1
18
  0
TEXT
  8
07 街区符号
 10
7.210286
 20
-17.742870
 11
7.210286
 21
-17.742870
 40
0.988142
 41
0.500000
 62
44
 72
1
  1
17
  0
TEXT
  8
07 街区符号
 10
16.270944
 20
-17.867411
 11
16.270944
 21
-17.867411
 40
0.988142
 41
0.500000
 62
44
 72
1
  1
16
  0
TEXT
  8
07 街区符号
 10
39.495685
 20
-19.912950
 11
39.495685
 21
-19.912950
 40
0.988142
 41
0.500000
 62
44
 72
1
  1
8
  0
TEXT
  8
07 街区符号
 10
-59.441707
 20
-12.865273
 11
-59.441707
 21
-12.865273
 40
0.988142
 41
0.500000
 62
44
 72
1
  1
9
  0
TEXT
  8
07 街区符号
 10
-46.428983
 20
-17.130845
 11
-46.428983
 21
-17.130845
 40
0.988142
 41
0.500000
 62
44
 72
1
  1
7
  0
TEXT
  8
07 街区符号
 10
-20.816259
 20
-15.581404
 11
-20.816259
 21
-15.581404
 40
0.988142
 41
0.500000
 62
44
 72
1
  1
10
  0
TEXT
  8
07 街区符号
 10
-12.173666
 20
-16.347081
 11
-12.173666
 21
-16.347081
 40
0.988142
 41
0.500000
 62
44
 72
1
  1
13
  0
TEXT
  8
07 街区符号
 10
25.462689
 20
-17.488965
 11
25.462689
 21
-17.488965
 40
0.988142
 41
0.500000
 62
44
 72
1
  1
13
  0
TEXT
  8
07 街区符号
 10
18.318894
 20
-48.709995
 11
18.318894
 21
-48.709995
 40
0.988142
 41
0.500000
 62
44
 72
1
  1
13
  0
TEXT
  8
07 街区符号
 10
31.048430
 20
-13.376012
 11
31.048430
 21
-13.376012
 40
0.988142
 41
0.500000
 62
44
 72
1
  1
12
  0
TEXT
  8
07 街区符号
 10
67.887412
 20
-16.473000
 11
67.887412
 21
-16.473000
 40
0.988142
 41
0.500000
 62
44
 72
1
  1
12
  0
TEXT
  8
07 街区符号
 10
-29.970625
 20
-13.967022
 11
-29.970625
 21
-13.967022
 40
0.988142
 41
0.500000
 62
44
 72
1
  1
9
  0
TEXT
  8
07 街区符号
 10
-0.122474
 20
-13.273348
 11
-0.122474
 21
-13.273348
 40
0.988142
 41
0.500000
 62
44
 72
1
  1
20
  0
TEXT
  8
07 街区符号
 10
16.127283
 20
-13.077837
 11
16.127283
 21
-13.077837
 40
0.988142
 41
0.500000
 62
44
 72
1
  1
15
  0
TEXT
  8
07 街区符号
 10
37.122343
 20
-14.838981
 11
37.122343
 21
-14.838981
 40
0.988142
 41
0.500000
 62
44
 72
1
  1
17
  0
TEXT
  8
07 街区符号
 10
41.282495
 20
-14.817449
 11
41.282495
 21
-14.817449
 40
0.988142
 41
0.500000
 62
44
 72
1
  1
16
  0
TEXT
  8
07 街区符号
 10
45.392520
 20
-14.745963
 11
45.392520
 21
-14.745963
 40
0.988142
 41
0.500000
 62
44
 72
1
  1
15
  0
TEXT
  8
07 街区符号
 10
48.932377
 20
-14.745963
 11
48.932377
 21
-14.745963
 40
0.988142
 41
0.500000
 62
44
 72
1
  1
14
  0
TEXT
  8
07 街区符号
 10
56.302689
 20
-14.705310
 11
56.302689
 21
-14.705310
 40
0.988142
 41
0.500000
 62
44
 72
1
  1
13
  0
TEXT
  8
07 街区符号
 10
4.101757
 20
-12.792581
 11
4.101757
 21
-12.792581
 40
0.988142
 41
0.500000
 62
44
 72
1
  1
21
  0
TEXT
  8
07 街区符号
 10
7.706038
 20
-12.631350
 11
7.706038
 21
-12.631350
 40
0.988142
 41
0.500000
 62
44
 72
1
  1
22
  0
TEXT
  8
07 街区符号
 10
24.617602
 20
-13.153974
 11
24.617602
 21
-13.153974
 40
0.988142
 41
0.500000
 62
44
 72
1
  1
14
  0
TEXT
  8
07 街区符号
 10
68.882707
 20
-11.584723
 11
68.882707
 21
-11.584723
 40
0.988142
 41
0.500000
 62
44
 72
1
  1
24
  0
TEXT
  8
07 街区符号
 10
16.646806
 20
-156.858425
 11
16.646806
 21
-156.858425
 40
0.988142
 41
0.500000
 62
44
 72
1
  1
1
  0
TEXT
  8
07 街区符号
 10
3.003453
 20
-93.935427
 11
3.003453
 21
-93.935427
 40
0.988142
 41
0.500000
 62
44
 72
1
  1
7
  0
TEXT
  8
07 街区符号
 10
46.663251
 20
-115.233485
 11
46.663251
 21
-115.233485
 40
0.988142
 41
0.500000
 62
44
 72
1
  1
1
  0
TEXT
  8
07 街区符号
 10
76.925677
 20
-101.498837
 11
76.925677
 21
-101.498837
 40
0.988142
 41
0.500000
 62
44
 72
1
  1
1
  0
TEXT
  8
07 街区符号
 10
33.548379
 20
-140.801767
 11
33.548379
 21
-140.801767
 40
0.988142
 41
0.500000
 62
44
 72
1
  1
9
  0
TEXT
  8
07 街区符号
 10
-12.575367
 20
-10.801648
 11
-12.575367
 21
-10.801648
 40
0.988142
 41
0.500000
 62
44
 72
1
  1
14
  0
POLYLINE
  8
08 地下鉄
  6
AIGENLINE002
 40
0.352780
 41
0.352780
 62
140
 66
1
 10
0
 20
0
 30
0
 70
128
  0
VERTEX
  8
08 地下鉄
 10
37.972771
 20
-159.787291
  0
VERTEX
  8
08 地下鉄
 10
37.845990
 20
-159.599188
  0
VERTEX
  8
08 地下鉄
 10
34.053605
 20
-156.247778
  0
VERTEX
  8
08 地下鉄
 10
30.349415
 20
-153.513733
  0
VERTEX
  8
08 地下鉄
 10
26.204250
 20
-150.867883
  0
VERTEX
  8
08 地下鉄
 10
21.706305
 20
-148.222033
  0
VERTEX
  8
08 地下鉄
 10
9.006225
 20
-141.607408
  0
VERTEX
  8
08 地下鉄
 10
2.391600
 20
-137.903218
  0
VERTEX
  8
08 地下鉄
 10
-1.753651
 20
-134.640003
  0
VERTEX
  8
08 地下鉄
 10
-5.369646
 20
-130.494838
  0
VERTEX
  8
08 地下鉄
 10
-8.191886
 20
-126.085088
  0
VERTEX
  8
08 地下鉄
 10
-10.484956
 20
-121.146168
  0
VERTEX
  8
08 地下鉄
 10
-11.984271
 20
-115.589883
  0
VERTEX
  8
08 地下鉄
 10
-12.866221
 20
-110.033598
  0
VERTEX
  8
08 地下鉄
 10
-13.013155
 20
-105.447458
  0
VERTEX
  8
08 地下鉄
 10
-11.719686
 20
-87.808458
  0
VERTEX
  8
08 地下鉄
 10
-6.516181
 20
-36.037993
  0
VERTEX
  8
08 地下鉄
 10
-7.486326
 20
-12.313538
  0
VERTEX
  8
08 地下鉄
 10
-7.622408
 20
-9.697833
  0
SEQEND
  0
POLYLINE
  8
08 地下鉄
  6
AIGENLINE002
 40
0.352780
 41
0.352780
 62
140
 66
1
 10
0
 20
0
 30
0
 70
128
  0
VERTEX
  8
08 地下鉄
 10
-13.013155
 20
-105.447458
  0
VERTEX
  8
08 地下鉄
 10
-11.719686
 20
-110.650963
  0
VERTEX
  8
08 地下鉄
 10
-8.456471
 20
-118.323928
  0
VERTEX
  8
08 地下鉄
 10
-4.134916
 20
-124.144798
  0
VERTEX
  8
08 地下鉄
 10
1.068589
 20
-128.466353
  0
VERTEX
  8
08 地下鉄
 10
6.536765
 20
-132.346933
  0
VERTEX
  8
08 地下鉄
 10
13.592365
 20
-135.874733
  0
VERTEX
  8
08 地下鉄
 10
28.850100
 20
-143.724088
  0
VERTEX
  8
08 地下鉄
 10
32.554290
 20
-145.928963
  0
VERTEX
  8
08 地下鉄
 10
35.288335
 20
-148.310228
  0
VERTEX
  8
08 地下鉄
 10
37.845990
 20
-150.956078
  0
VERTEX
  8
08 地下鉄
 10
40.050865
 20
-154.395683
  0
VERTEX
  8
08 地下鉄
 10
42.343935
 20
-158.364458
  0
VERTEX
  8
08 地下鉄
 10
42.687758
 20
-159.787291
  0
SEQEND
  0
POLYLINE
  8
08 地下鉄
 40
0.050000
 41
0.050000
 62
140
 66
1
 10
0
 20
0
 30
0
 70
1
  0
VERTEX
  8
08 地下鉄
 10
-6.957845
 20
-12.285977
  0
VERTEX
  8
08 地下鉄
 10
-7.092463
 20
-9.697833
  0
VERTEX
  8
08 地下鉄
 10
-8.152353
 20
-9.697833
  0
VERTEX
  8
08 地下鉄
 10
-8.014807
 20
-12.341099
  0
SEQEND
  0
HATCH
  8
08 地下鉄
 62
140
 10
0.0
 20
0.0
 30
0.0
 210
0.0
 220
0.0
 230
1.0
  2
SOLID
 70
     1
 71
     1
 91
     1
 92
     2
 72
     1
 73
     1
 93
     4
 10
-6.957845
 20
-12.285977
 42
0.000000
 10
-7.092463
 20
-9.697833
 42
0.000000
 10
-8.152353
 20
-9.697833
 42
0.000000
 10
-8.014807
 20
-12.341099
 42
0.000000
 97
     0
 75
     0
 76
     1
 98
     1
 10
0.0
 20
0.0
  0
POLYLINE
  8
08 地下鉄
 40
0.050000
 41
0.050000
 62
140
 66
1
 10
0
 20
0
 30
0
 70
1
  0
VERTEX
  8
08 地下鉄
 10
-13.540861
 20
-105.408700
  0
VERTEX
  8
08 地下鉄
 10
-12.485449
 20
-105.486215
  0
VERTEX
  8
08 地下鉄
 10
-11.191980
 20
-87.847215
  0
VERTEX
  8
08 地下鉄
 10
-12.247392
 20
-87.769700
  0
SEQEND
  0
HATCH
  8
08 地下鉄
 62
140
 10
0.0
 20
0.0
 30
0.0
 210
0.0
 220
0.0
 230
1.0
  2
SOLID
 70
     1
 71
     1
 91
     1
 92
     2
 72
     1
 73
     1
 93
     4
 10
-13.540861
 20
-105.408700
 42
0.000000
 10
-12.485449
 20
-105.486215
 42
0.000000
 10
-11.191980
 20
-87.847215
 42
0.000000
 10
-12.247392
 20
-87.769700
 42
0.000000
 97
     0
 75
     0
 76
     1
 98
     1
 10
0.0
 20
0.0
  0
TEXT
  8
08 地下鉄
 10
-12.349712
 20
-97.849252
 11
-12.349712
 21
-97.849252
 40
0.980158
 41
0.500000
 72
1
  1
浅間町駅
  0
TEXT
  8
08 地下鉄
 10
-7.788893
 20
-58.984024
 11
-7.788893
 21
-58.984024
 40
0.980158
 41
0.500000
 50
355.945816
 72
1
  1
地下鉄鶴舞線
  0
POLYLINE
  8
12 区界
  6
AIGENLINE003
 40
0.176390
 41
0.176390
 62
30
 66
1
 10
0
 20
0
 30
0
 70
128
  0
VERTEX
  8
12 区界
 10
77.025586
 20
-64.217157
  0
VERTEX
  8
12 区界
 10
78.317505
 20
-64.033360
  0
SEQEND
  0
POLYLINE
  8
12 区界
  6
AIGENLINE003
 40
0.176390
 41
0.176390
 62
30
 66
1
 10
0
 20
0
 30
0
 70
128
  0
VERTEX
  8
12 区界
 10
20.648310
 20
-145.247863
  0
VERTEX
  8
12 区界
 10
21.484268
 20
-139.114693
  0
VERTEX
  8
12 区界
 10
28.472860
 20
-114.623527
  0
SEQEND
  0
POLYLINE
  8
12 区界
  6
AIGENLINE003
 40
0.176390
 41
0.176390
 62
30
 66
1
 10
0
 20
0
 30
0
 70
128
  0
VERTEX
  8
12 区界
 10
28.472860
 20
-114.623527
  0
VERTEX
  8
12 区界
 10
29.838160
 20
-109.369552
  0
VERTEX
  8
12 区界
 10
31.010189
 20
-109.793301
  0
SEQEND
  0
POLYLINE
  8
12 区界
  6
AIGENLINE003
 40
0.176390
 41
0.176390
 62
30
 66
1
 10
0
 20
0
 30
0
 70
128
  0
VERTEX
  8
12 区界
 10
31.010189
 20
-109.793301
  0
VERTEX
  8
12 区界
 10
33.215064
 20
-110.439433
  0
VERTEX
  8
12 区界
 10
35.372741
 20
-108.407158
  0
VERTEX
  8
12 区界
 10
37.918682
 20
-106.954524
  0
SEQEND
  0
POLYLINE
  8
12 区界
  6
AIGENLINE003
 40
0.176390
 41
0.176390
 62
30
 66
1
 10
0
 20
0
 30
0
 70
128
  0
VERTEX
  8
12 区界
 10
37.918682
 20
-106.954524
  0
VERTEX
  8
12 区界
 10
38.240629
 20
-101.213926
  0
VERTEX
  8
12 区界
 10
37.512158
 20
-86.804551
  0
VERTEX
  8
12 区界
 10
40.658584
 20
-86.080732
  0
VERTEX
  8
12 区界
 10
38.878492
 20
-59.436195
  0
SEQEND
  0
POLYLINE
  8
12 区界
  6
AIGENLINE003
 40
0.176390
 41
0.176390
 62
30
 66
1
 10
0
 20
0
 30
0
 70
128
  0
VERTEX
  8
12 区界
 10
38.878492
 20
-59.436195
  0
VERTEX
  8
12 区界
 10
38.858166
 20
-59.276170
  0
VERTEX
  8
12 区界
 10
67.801284
 20
-56.684925
  0
SEQEND
  0
POLYLINE
  8
12 区界
  6
AIGENLINE003
 40
0.176390
 41
0.176390
 62
30
 66
1
 10
0
 20
0
 30
0
 70
128
  0
VERTEX
  8
12 区界
 10
67.801284
 20
-56.684925
  0
VERTEX
  8
12 区界
 10
70.080746
 20
-56.588461
  0
VERTEX
  8
12 区界
 10
70.824030
 20
-64.746671
  0
VERTEX
  8
12 区界
 10
77.032131
 20
-64.219396
  0
SEQEND
  0
POLYLINE
  8
12 区界
  6
AIGENLINE003
 40
0.176390
 41
0.176390
 62
30
 66
1
 10
0
 20
0
 30
0
 70
128
  0
VERTEX
  8
12 区界
 10
67.801284
 20
-56.684925
  0
VERTEX
  8
12 区界
 10
65.917666
 20
-34.039997
  0
SEQEND
  0
POLYLINE
  8
12 区界
  6
AIGENLINE003
 40
0.176390
 41
0.176390
 62
30
 66
1
 10
0
 20
0
 30
0
 70
128
  0
VERTEX
  8
12 区界
 10
65.873741
 20
-33.775412
  0
VERTEX
  8
12 区界
 10
69.742608
 20
-29.784588
  0
VERTEX
  8
12 区界
 10
71.373871
 20
-28.954832
  0
VERTEX
  8
12 区界
 10
72.669924
 20
-27.611064
  0
VERTEX
  8
12 区界
 10
74.401784
 20
-24.715960
  0
VERTEX
  8
12 区界
 10
74.842070
 20
-17.784901
  0
VERTEX
  8
12 区界
 10
74.712189
 20
-10.483319
  0
SEQEND
  0
POLYLINE
  8
12 区界
  6
AIGENLINE003
 40
0.176390
 41
0.176390
 62
30
 66
1
 10
0
 20
0
 30
0
 70
128
  0
VERTEX
  8
12 区界
 10
18.383490
 20
-159.787291
  0
VERTEX
  8
12 区界
 10
20.648310
 20
-145.247863
  0
SEQEND
  0
POLYLINE
  8
12 区界
  6
AIGENLINE003
 40
0.176390
 41
0.176390
 62
30
 66
1
 10
0
 20
0
 30
0
 70
128
  0
VERTEX
  8
12 区界
 10
74.949041
 20
-9.697833
  0
VERTEX
  8
12 区界
 10
74.712189
 20
-10.483319
  0
SEQEND
  0
POLYLINE
  8
13 町界
  6
AIGENLINE003
 40
0.176390
 41
0.176390
 62
30
 66
1
 10
0
 20
0
 30
0
 70
128
  0
VERTEX
  8
13 町界
 10
76.665743
 20
-120.694168
  0
VERTEX
  8
13 町界
 10
78.317505
 20
-139.033733
  0
SEQEND
  0
POLYLINE
  8
13 町界
  6
AIGENLINE003
 40
0.176390
 41
0.176390
 62
30
 66
1
 10
0
 20
0
 30
0
 70
128
  0
VERTEX
  8
13 町界
 10
76.665743
 20
-120.694168
  0
VERTEX
  8
13 町界
 10
75.326454
 20
-104.020663
  0
SEQEND
  0
POLYLINE
  8
13 町界
  6
AIGENLINE003
 40
0.176390
 41
0.176390
 62
30
 66
1
 10
0
 20
0
 30
0
 70
128
  0
VERTEX
  8
13 町界
 10
75.326454
 20
-104.020663
  0
VERTEX
  8
13 町界
 10
77.025241
 20
-103.963646
  0
VERTEX
  8
13 町界
 10
76.759967
 20
-99.090355
  0
VERTEX
  8
13 町界
 10
78.317505
 20
-98.926540
  0
SEQEND
  0
POLYLINE
  8
13 町界
  6
AIGENLINE003
 40
0.176390
 41
0.176390
 62
30
 66
1
 10
0
 20
0
 30
0
 70
128
  0
VERTEX
  8
13 町界
 10
75.326454
 20
-104.020663
  0
VERTEX
  8
13 町界
 10
37.918682
 20
-106.954524
  0
SEQEND
  0
POLYLINE
  8
13 町界
  6
AIGENLINE003
 40
0.176390
 41
0.176390
 62
30
 66
1
 10
0
 20
0
 30
0
 70
128
  0
VERTEX
  8
13 町界
 10
-14.655098
 20
-136.905856
  0
VERTEX
  8
13 町界
 10
20.648310
 20
-145.247863
  0
SEQEND
  0
POLYLINE
  8
13 町界
  6
AIGENLINE003
 40
0.176390
 41
0.176390
 62
30
 66
1
 10
0
 20
0
 30
0
 70
128
  0
VERTEX
  8
13 町界
 10
-50.986356
 20
-159.787291
  0
VERTEX
  8
13 町界
 10
-50.920641
 20
-134.123580
  0
SEQEND
  0
POLYLINE
  8
13 町界
  6
AIGENLINE003
 40
0.176390
 41
0.176390
 62
30
 66
1
 10
0
 20
0
 30
0
 70
128
  0
VERTEX
  8
13 町界
 10
-50.920641
 20
-134.123580
  0
VERTEX
  8
13 町界
 10
-39.830895
 20
-136.016672
  0
VERTEX
  8
13 町界
 10
-14.655098
 20
-136.905856
  0
SEQEND
  0
POLYLINE
  8
13 町界
  6
AIGENLINE003
 40
0.176390
 41
0.176390
 62
30
 66
1
 10
0
 20
0
 30
0
 70
128
  0
VERTEX
  8
13 町界
 10
35.758594
 20
-32.809057
  0
VERTEX
  8
13 町界
 10
46.201089
 20
-31.675269
  0
VERTEX
  8
13 町界
 10
55.397829
 20
-30.589368
  0
VERTEX
  8
13 町界
 10
62.119253
 20
-30.950588
  0
VERTEX
  8
13 町界
 10
65.580562
 20
-32.566176
  0
VERTEX
  8
13 町界
 10
65.917666
 20
-34.039997
  0
SEQEND
  0
POLYLINE
  8
13 町界
  6
AIGENLINE003
 40
0.176390
 41
0.176390
 62
30
 66
1
 10
0
 20
0
 30
0
 70
128
  0
VERTEX
  8
13 町界
 10
65.917666
 20
-34.039997
  0
VERTEX
  8
13 町界
 10
60.942056
 20
-38.915871
  0
VERTEX
  8
13 町界
 10
57.978222
 20
-41.292141
  0
VERTEX
  8
13 町界
 10
56.740047
 20
-42.035770
  0
VERTEX
  8
13 町界
 10
51.716893
 20
-44.489899
  0
VERTEX
  8
13 町界
 10
48.181859
 20
-46.349745
  0
VERTEX
  8
13 町界
 10
47.014136
 20
-47.073048
  0
VERTEX
  8
13 町界
 10
45.876559
 20
-47.956031
  0
VERTEX
  8
13 町界
 10
44.859215
 20
-48.879323
  0
VERTEX
  8
13 町界
 10
43.871845
 20
-49.811916
  0
VERTEX
  8
13 町界
 10
38.499357
 20
-56.191412
  0
SEQEND
  0
POLYLINE
  8
13 町界
  6
AIGENLINE003
 40
0.176390
 41
0.176390
 62
30
 66
1
 10
0
 20
0
 30
0
 70
128
  0
VERTEX
  8
13 町界
 10
38.499357
 20
-56.191412
  0
VERTEX
  8
13 町界
 10
38.415124
 20
-54.571690
  0
SEQEND
  0
POLYLINE
  8
13 町界
  6
AIGENLINE003
 40
0.176390
 41
0.176390
 62
30
 66
1
 10
0
 20
0
 30
0
 70
128
  0
VERTEX
  8
13 町界
 10
38.415124
 20
-54.571690
  0
VERTEX
  8
13 町界
 10
35.758594
 20
-32.809057
  0
SEQEND
  0
POLYLINE
  8
13 町界
  6
AIGENLINE003
 40
0.176390
 41
0.176390
 62
30
 66
1
 10
0
 20
0
 30
0
 70
128
  0
VERTEX
  8
13 町界
 10
38.415124
 20
-54.571690
  0
VERTEX
  8
13 町界
 10
34.799473
 20
-59.737471
  0
VERTEX
  8
13 町界
 10
3.681624
 20
-63.093704
  0
VERTEX
  8
13 町界
 10
-2.643955
 20
-62.262225
  0
VERTEX
  8
13 町界
 10
-7.500795
 20
-60.471797
  0
SEQEND
  0
POLYLINE
  8
13 町界
  6
AIGENLINE003
 40
0.176390
 41
0.176390
 62
30
 66
1
 10
0
 20
0
 30
0
 70
128
  0
VERTEX
  8
13 町界
 10
-5.427179
 20
-31.216379
  0
VERTEX
  8
13 町界
 10
-5.103510
 20
-36.785067
  0
SEQEND
  0
POLYLINE
  8
13 町界
  6
AIGENLINE003
 40
0.176390
 41
0.176390
 62
30
 66
1
 10
0
 20
0
 30
0
 70
128
  0
VERTEX
  8
13 町界
 10
-5.103510
 20
-36.785067
  0
VERTEX
  8
13 町界
 10
-1.123797
 20
-37.062398
  0
VERTEX
  8
13 町界
 10
35.758594
 20
-32.809057
  0
SEQEND
  0
POLYLINE
  8
13 町界
  6
AIGENLINE003
 40
0.176390
 41
0.176390
 62
30
 66
1
 10
0
 20
0
 30
0
 70
128
  0
VERTEX
  8
13 町界
 10
-5.103510
 20
-36.785067
  0
VERTEX
  8
13 町界
 10
-7.500795
 20
-60.471797
  0
SEQEND
  0
POLYLINE
  8
13 町界
  6
AIGENLINE003
 40
0.176390
 41
0.176390
 62
30
 66
1
 10
0
 20
0
 30
0
 70
128
  0
VERTEX
  8
13 町界
 10
-7.500795
 20
-60.471797
  0
VERTEX
  8
13 町界
 10
-9.742533
 20
-81.765378
  0
SEQEND
  0
POLYLINE
  8
13 町界
  6
AIGENLINE003
 40
0.176390
 41
0.176390
 62
30
 66
1
 10
0
 20
0
 30
0
 70
128
  0
VERTEX
  8
13 町界
 10
-9.742533
 20
-81.765378
  0
VERTEX
  8
13 町界
 10
1.862947
 20
-85.849909
  0
SEQEND
  0
POLYLINE
  8
13 町界
  6
AIGENLINE003
 40
0.176390
 41
0.176390
 62
30
 66
1
 10
0
 20
0
 30
0
 70
128
  0
VERTEX
  8
13 町界
 10
1.862947
 20
-85.849909
  0
VERTEX
  8
13 町界
 10
30.729929
 20
-95.688991
  0
VERTEX
  8
13 町界
 10
30.414528
 20
-96.686869
  0
VERTEX
  8
13 町界
 10
34.085300
 20
-97.961390
  0
SEQEND
  0
POLYLINE
  8
13 町界
  6
AIGENLINE003
 40
0.176390
 41
0.176390
 62
30
 66
1
 10
0
 20
0
 30
0
 70
128
  0
VERTEX
  8
13 町界
 10
34.085300
 20
-97.961390
  0
VERTEX
  8
13 町界
 10
34.341617
 20
-96.298949
  0
VERTEX
  8
13 町界
 10
34.154031
 20
-93.539583
  0
VERTEX
  8
13 町界
 10
33.108954
 20
-88.152281
  0
VERTEX
  8
13 町界
 10
32.965982
 20
-87.082916
  0
VERTEX
  8
13 町界
 10
31.690255
 20
-70.795780
  0
VERTEX
  8
13 町界
 10
32.006517
 20
-68.964873
  0
VERTEX
  8
13 町界
 10
33.435551
 20
-65.600888
  0
VERTEX
  8
13 町界
 10
34.658396
 20
-62.987767
  0
VERTEX
  8
13 町界
 10
35.841793
 20
-60.644570
  0
VERTEX
  8
13 町界
 10
37.445495
 20
-58.350294
  0
VERTEX
  8
13 町界
 10
38.183956
 20
-57.767897
  0
SEQEND
  0
POLYLINE
  8
13 町界
  6
AIGENLINE003
 40
0.176390
 41
0.176390
 62
30
 66
1
 10
0
 20
0
 30
0
 70
128
  0
VERTEX
  8
13 町界
 10
38.878492
 20
-59.436195
  0
VERTEX
  8
13 町界
 10
38.358624
 20
-59.447392
  0
VERTEX
  8
13 町界
 10
38.183956
 20
-57.767897
  0
SEQEND
  0
POLYLINE
  8
13 町界
  6
AIGENLINE003
 40
0.176390
 41
0.176390
 62
30
 66
1
 10
0
 20
0
 30
0
 70
128
  0
VERTEX
  8
13 町界
 10
38.183956
 20
-57.767897
  0
VERTEX
  8
13 町界
 10
38.141237
 20
-56.798097
  0
VERTEX
  8
13 町界
 10
38.499357
 20
-56.191412
  0
SEQEND
  0
POLYLINE
  8
13 町界
  6
AIGENLINE003
 40
0.176390
 41
0.176390
 62
30
 66
1
 10
0
 20
0
 30
0
 70
128
  0
VERTEX
  8
13 町界
 10
34.085300
 20
-97.961390
  0
VERTEX
  8
13 町界
 10
31.010189
 20
-109.793301
  0
SEQEND
  0
POLYLINE
  8
13 町界
  6
AIGENLINE003
 40
0.176390
 41
0.176390
 62
30
 66
1
 10
0
 20
0
 30
0
 70
128
  0
VERTEX
  8
13 町界
 10
-9.742533
 20
-81.765378
  0
VERTEX
  8
13 町界
 10
-10.910686
 20
-95.900349
  0
VERTEX
  8
13 町界
 10
-9.795588
 20
-97.767258
  0
SEQEND
  0
POLYLINE
  8
13 町界
  6
AIGENLINE003
 40
0.176390
 41
0.176390
 62
30
 66
1
 10
0
 20
0
 30
0
 70
128
  0
VERTEX
  8
13 町界
 10
-2.731806
 20
-100.093057
  0
VERTEX
  8
13 町界
 10
-9.795588
 20
-97.767258
  0
SEQEND
  0
POLYLINE
  8
13 町界
  6
AIGENLINE003
 40
0.176390
 41
0.176390
 62
30
 66
1
 10
0
 20
0
 30
0
 70
128
  0
VERTEX
  8
13 町界
 10
28.472860
 20
-114.623527
  0
VERTEX
  8
13 町界
 10
20.259356
 20
-108.216815
  0
VERTEX
  8
13 町界
 10
-2.731806
 20
-100.093057
  0
SEQEND
  0
POLYLINE
  8
13 町界
  6
AIGENLINE003
 40
0.176390
 41
0.176390
 62
30
 66
1
 10
0
 20
0
 30
0
 70
128
  0
VERTEX
  8
13 町界
 10
-14.655098
 20
-136.905856
  0
VERTEX
  8
13 町界
 10
-10.686495
 20
-97.449791
  0
SEQEND
  0
POLYLINE
  8
13 町界
  6
AIGENLINE003
 40
0.176390
 41
0.176390
 62
30
 66
1
 10
0
 20
0
 30
0
 70
128
  0
VERTEX
  8
13 町界
 10
-9.795588
 20
-97.767258
  0
VERTEX
  8
13 町界
 10
-10.686495
 20
-97.449791
  0
SEQEND
  0
POLYLINE
  8
13 町界
  6
AIGENLINE003
 40
0.176390
 41
0.176390
 62
30
 66
1
 10
0
 20
0
 30
0
 70
128
  0
VERTEX
  8
13 町界
 10
-42.410598
 20
-26.133453
  0
VERTEX
  8
13 町界
 10
-45.260055
 20
-50.210171
  0
SEQEND
  0
POLYLINE
  8
13 町界
  6
AIGENLINE003
 40
0.176390
 41
0.176390
 62
30
 66
1
 10
0
 20
0
 30
0
 70
128
  0
VERTEX
  8
13 町界
 10
-45.260055
 20
-50.210171
  0
VERTEX
  8
13 町界
 10
-47.576638
 20
-68.540779
  0
SEQEND
  0
POLYLINE
  8
13 町界
  6
AIGENLINE003
 40
0.176390
 41
0.176390
 62
30
 66
1
 10
0
 20
0
 30
0
 70
128
  0
VERTEX
  8
13 町界
 10
-47.576638
 20
-68.540779
  0
VERTEX
  8
13 町界
 10
-49.390492
 20
-82.381020
  0
VERTEX
  8
13 町界
 10
-48.315271
 20
-84.237766
  0
SEQEND
  0
POLYLINE
  8
13 町界
  6
AIGENLINE003
 40
0.176390
 41
0.176390
 62
30
 66
1
 10
0
 20
0
 30
0
 70
128
  0
VERTEX
  8
13 町界
 10
-42.410598
 20
-26.133453
  0
VERTEX
  8
13 町界
 10
-5.427179
 20
-31.216379
  0
SEQEND
  0
POLYLINE
  8
13 町界
  6
AIGENLINE003
 40
0.176390
 41
0.176390
 62
30
 66
1
 10
0
 20
0
 30
0
 70
128
  0
VERTEX
  8
13 町界
 10
-45.260055
 20
-50.210171
  0
VERTEX
  8
13 町界
 10
-7.500795
 20
-60.471797
  0
SEQEND
  0
POLYLINE
  8
13 町界
  6
AIGENLINE003
 40
0.176390
 41
0.176390
 62
30
 66
1
 10
0
 20
0
 30
0
 70
128
  0
VERTEX
  8
13 町界
 10
-47.576638
 20
-68.540779
  0
VERTEX
  8
13 町界
 10
-9.742533
 20
-81.765378
  0
SEQEND
  0
POLYLINE
  8
13 町界
  6
AIGENLINE003
 40
0.176390
 41
0.176390
 62
30
 66
1
 10
0
 20
0
 30
0
 70
128
  0
VERTEX
  8
13 町界
 10
-49.885125
 20
-84.305118
  0
VERTEX
  8
13 町界
 10
-48.315271
 20
-84.237766
  0
SEQEND
  0
POLYLINE
  8
13 町界
  6
AIGENLINE003
 40
0.176390
 41
0.176390
 62
30
 66
1
 10
0
 20
0
 30
0
 70
128
  0
VERTEX
  8
13 町界
 10
-48.315271
 20
-84.237766
  0
VERTEX
  8
13 町界
 10
-10.686495
 20
-97.449791
  0
SEQEND
  0
POLYLINE
  8
13 町界
  6
AIGENLINE003
 40
0.176390
 41
0.176390
 62
30
 66
1
 10
0
 20
0
 30
0
 70
128
  0
VERTEX
  8
13 町界
 10
-49.885125
 20
-84.305118
  0
VERTEX
  8
13 町界
 10
-50.920641
 20
-134.123580
  0
SEQEND
  0
POLYLINE
  8
13 町界
  6
AIGENLINE003
 40
0.176390
 41
0.176390
 62
30
 66
1
 10
0
 20
0
 30
0
 70
128
  0
VERTEX
  8
13 町界
 10
-45.260055
 20
-50.210171
  0
VERTEX
  8
13 町界
 10
-71.687118
 20
-47.070808
  0
SEQEND
  0
POLYLINE
  8
13 町界
  6
AIGENLINE003
 40
0.176390
 41
0.176390
 62
30
 66
1
 10
0
 20
0
 30
0
 70
128
  0
VERTEX
  8
13 町界
 10
-47.576638
 20
-68.540779
  0
VERTEX
  8
13 町界
 10
-71.687118
 20
-60.151402
  0
SEQEND
  0
POLYLINE
  8
13 町界
  6
AIGENLINE003
 40
0.176390
 41
0.176390
 62
30
 66
1
 10
0
 20
0
 30
0
 70
128
  0
VERTEX
  8
13 町界
 10
-49.885125
 20
-84.305118
  0
VERTEX
  8
13 町界
 10
-71.687118
 20
-76.740330
  0
SEQEND
  0
POLYLINE
  8
13 町界
  6
AIGENLINE003
 40
0.176390
 41
0.176390
 62
30
 66
1
 10
0
 20
0
 30
0
 70
128
  0
VERTEX
  8
13 町界
 10
-50.920641
 20
-134.123580
  0
VERTEX
  8
13 町界
 10
-71.687118
 20
-131.008677
  0
SEQEND
  0
POLYLINE
  8
13 町界
  6
AIGENLINE003
 40
0.176390
 41
0.176390
 62
30
 66
1
 10
0
 20
0
 30
0
 70
128
  0
VERTEX
  8
13 町界
 10
76.665743
 20
-120.694168
  0
VERTEX
  8
13 町界
 10
78.317505
 20
-120.546201
  0
SEQEND
  0
POLYLINE
  8
13 町界
  6
AIGENLINE003
 40
0.176390
 41
0.176390
 62
30
 66
1
 10
0
 20
0
 30
0
 70
128
  0
VERTEX
  8
13 町界
 10
1.862947
 20
-85.849909
  0
VERTEX
  8
13 町界
 10
-2.731806
 20
-100.093057
  0
SEQEND
  0
POLYLINE
  8
13 町界
  6
AIGENLINE003
 40
0.176390
 41
0.176390
 62
30
 66
1
 10
0
 20
0
 30
0
 70
128
  0
VERTEX
  8
13 町界
 10
-14.699798
 20
-159.787291
  0
VERTEX
  8
13 町界
 10
-14.655098
 20
-136.905856
  0
SEQEND
  0
POLYLINE
  8
13 町界
  6
AIGENLINE003
 40
0.176390
 41
0.176390
 62
30
 66
1
 10
0
 20
0
 30
0
 70
128
  0
VERTEX
  8
13 町界
 10
36.028691
 20
-9.697833
  0
VERTEX
  8
13 町界
 10
34.092880
 20
-17.203537
  0
VERTEX
  8
13 町界
 10
35.758594
 20
-32.809057
  0
SEQEND
  0
POLYLINE
  8
13 町界
  6
AIGENLINE003
 40
0.176390
 41
0.176390
 62
30
 66
1
 10
0
 20
0
 30
0
 70
128
  0
VERTEX
  8
13 町界
 10
-40.677618
 20
-9.697833
  0
VERTEX
  8
13 町界
 10
-42.410598
 20
-26.133453
  0
SEQEND
  0
POLYLINE
  8
13 町界
  6
AIGENLINE003
 40
0.176390
 41
0.176390
 62
30
 66
1
 10
0
 20
0
 30
0
 70
128
  0
VERTEX
  8
13 町界
 10
-6.708849
 20
-9.697833
  0
VERTEX
  8
13 町界
 10
-5.427179
 20
-31.216379
  0
SEQEND
  0
POLYLINE
  8
14 公・官庁施設
 40
0.105834
 41
0.105834
 66
1
 10
0
 20
0
 30
0
 70
1
  0
VERTEX
  8
14 公・官庁施設
 10
68.333210
 20
-111.034060
  0
VERTEX
  8
14 公・官庁施設
 10
73.502264
 20
-110.599803
  0
VERTEX
  8
14 公・官庁施設
 10
73.676932
 20
-112.369387
  0
VERTEX
  8
14 公・官庁施設
 10
68.458613
 20
-112.893734
  0
SEQEND
  0
POLYLINE
  8
14 公・官庁施設
 40
0.105834
 41
0.105834
 66
1
 10
0
 20
0
 30
0
 70
1
  0
VERTEX
  8
14 公・官庁施設
 10
61.643137
 20
-110.932946
  0
VERTEX
  8
14 公・官庁施設
 10
66.261661
 20
-110.479741
  0
VERTEX
  8
14 公・官庁施設
 10
66.220320
 20
-109.950054
  0
VERTEX
  8
14 公・官庁施設
 10
67.539800
 20
-109.826374
  0
VERTEX
  8
14 公・官庁施設
 10
67.581486
 20
-110.356405
  0
VERTEX
  8
14 公・官庁施設
 10
67.681394
 20
-110.346070
  0
VERTEX
  8
14 公・官庁施設
 10
67.868120
 20
-112.765576
  0
VERTEX
  8
14 公・官庁施設
 10
61.849844
 20
-113.342461
  0
SEQEND
  0
POLYLINE
  8
14 公・官庁施設
 40
0.105834
 41
0.105834
 66
1
 10
0
 20
0
 30
0
 70
1
  0
VERTEX
  8
14 公・官庁施設
 10
57.184122
 20
-132.795659
  0
VERTEX
  8
14 公・官庁施設
 10
60.013252
 20
-132.507648
  0
VERTEX
  8
14 公・官庁施設
 10
59.878893
 20
-130.948215
  0
VERTEX
  8
14 公・官庁施設
 10
60.512105
 20
-130.935813
  0
VERTEX
  8
14 公・官庁施設
 10
60.602712
 20
-132.435817
  0
VERTEX
  8
14 公・官庁施設
 10
63.362595
 20
-132.308692
  0
VERTEX
  8
14 公・官庁施設
 10
63.763607
 20
-136.237159
  0
VERTEX
  8
14 公・官庁施設
 10
57.585478
 20
-136.844706
  0
SEQEND
  0
POLYLINE
  8
14 公・官庁施設
 40
0.105834
 41
0.105834
 66
1
 10
0
 20
0
 30
0
 70
1
  0
VERTEX
  8
14 公・官庁施設
 10
-56.053693
 20
-76.002730
  0
VERTEX
  8
14 公・官庁施設
 10
-56.011663
 20
-76.742741
  0
VERTEX
  8
14 公・官庁施設
 10
-55.561472
 20
-76.731200
  0
VERTEX
  8
14 公・官庁施設
 10
-55.580678
 20
-77.051252
  0
VERTEX
  8
14 公・官庁施設
 10
-52.390844
 20
-77.022313
  0
VERTEX
  8
14 公・官庁施設
 10
-52.412979
 20
-76.192556
  0
VERTEX
  8
14 公・官庁施設
 10
-52.053051
 20
-76.201341
  0
VERTEX
  8
14 公・官庁施設
 10
-52.085521
 20
-75.381576
  0
VERTEX
  8
14 公・官庁施設
 10
-52.425382
 20
-75.381920
  0
VERTEX
  8
14 公・官庁施設
 10
-52.467929
 20
-74.502726
  0
VERTEX
  8
14 公・官庁施設
 10
-55.557510
 20
-74.521158
  0
VERTEX
  8
14 公・官庁施設
 10
-55.556735
 20
-74.891335
  0
VERTEX
  8
14 公・官庁施設
 10
-56.056794
 20
-74.892714
  0
SEQEND
  0
POLYLINE
  8
14 公・官庁施設
 40
0.105834
 41
0.105834
 66
1
 10
0
 20
0
 30
0
 70
1
  0
VERTEX
  8
14 公・官庁施設
 10
70.683814
 20
-83.163751
  0
VERTEX
  8
14 公・官庁施設
 10
70.448512
 20
-81.047071
  0
VERTEX
  8
14 公・官庁施設
 10
68.273265
 20
-81.282200
  0
VERTEX
  8
14 公・官庁施設
 10
68.081717
 20
-79.497285
  0
VERTEX
  8
14 公・官庁施設
 10
69.067020
 20
-79.430105
  0
VERTEX
  8
14 公・官庁施設
 10
68.626045
 20
-75.020355
  0
VERTEX
  8
14 公・官庁施設
 10
64.745465
 20
-75.461330
  0
VERTEX
  8
14 公・官庁施設
 10
65.240529
 20
-79.879693
  0
VERTEX
  8
14 公・官庁施設
 10
66.944139
 20
-79.734826
  0
VERTEX
  8
14 公・官庁施設
 10
67.273665
 20
-83.457619
  0
SEQEND
  0
POLYLINE
  8
15 病院
 40
0.105834
 41
0.105834
 62
4
 66
1
 10
0
 20
0
 30
0
 70
1
  0
VERTEX
  8
15 病院
 10
69.653035
 20
-132.990998
  0
VERTEX
  8
15 病院
 10
73.741355
 20
-132.699713
  0
VERTEX
  8
15 病院
 10
74.082766
 20
-136.250423
  0
VERTEX
  8
15 病院
 10
69.920720
 20
-136.528788
  0
SEQEND
  0
POLYLINE
  8
15 病院
 40
0.105834
 41
0.105834
 62
4
 66
1
 10
0
 20
0
 30
0
 70
1
  0
VERTEX
  8
15 病院
 10
11.541315
 20
-14.052116
  0
VERTEX
  8
15 病院
 10
13.890712
 20
-13.795455
  0
VERTEX
  8
15 病院
 10
13.953069
 20
-14.635375
  0
VERTEX
  8
15 病院
 10
11.633816
 20
-14.891691
  0
SEQEND
  0
POLYLINE
  8
16 学校
 40
0.105834
 41
0.105834
 62
1
 66
1
 10
0
 20
0
 30
0
 70
1
  0
VERTEX
  8
16 学校
 10
28.480267
 20
-145.926035
  0
VERTEX
  8
16 学校
 10
30.519432
 20
-145.680398
  0
VERTEX
  8
16 学校
 10
30.910969
 20
-149.689481
  0
VERTEX
  8
16 学校
 10
28.811171
 20
-149.865181
  0
SEQEND
  0
POLYLINE
  8
16 学校
 40
0.105834
 41
0.105834
 62
1
 66
1
 10
0
 20
0
 30
0
 70
1
  0
VERTEX
  8
16 学校
 10
29.649023
 20
-138.302507
  0
VERTEX
  8
16 学校
 10
30.258809
 20
-138.221030
  0
VERTEX
  8
16 学校
 10
30.381283
 20
-139.100396
  0
VERTEX
  8
16 学校
 10
29.791479
 20
-139.192208
  0
SEQEND
  0
POLYLINE
  8
16 学校
 40
0.105834
 41
0.105834
 62
1
 66
1
 10
0
 20
0
 30
0
 70
1
  0
VERTEX
  8
16 学校
 10
-19.136679
 20
-114.938756
  0
VERTEX
  8
16 学校
 10
-18.866581
 20
-114.977686
  0
VERTEX
  8
16 学校
 10
-18.972949
 20
-116.278390
  0
VERTEX
  8
16 学校
 10
-19.353290
 20
-116.269604
  0
VERTEX
  8
16 学校
 10
-19.305403
 20
-115.459313
  0
VERTEX
  8
16 学校
 10
-19.215313
 20
-115.448978
  0
SEQEND
  0
POLYLINE
  8
16 学校
 40
0.105834
 41
0.105834
 62
1
 66
1
 10
0
 20
0
 30
0
 70
1
  0
VERTEX
  8
16 学校
 10
-25.249436
 20
-110.425652
  0
VERTEX
  8
16 学校
 10
-24.899154
 20
-110.524872
  0
VERTEX
  8
16 学校
 10
-24.908972
 20
-110.625124
  0
VERTEX
  8
16 学校
 10
-20.545473
 20
-111.902918
  0
VERTEX
  8
16 学校
 10
-20.244542
 20
-112.132019
  0
VERTEX
  8
16 学校
 10
-19.214108
 20
-112.258971
  0
VERTEX
  8
16 学校
 10
-19.828200
 20
-118.091038
  0
VERTEX
  8
16 学校
 10
-20.808594
 20
-117.933596
  0
VERTEX
  8
16 学校
 10
-20.291826
 20
-113.121973
  0
VERTEX
  8
16 学校
 10
-20.491988
 20
-113.052554
  0
VERTEX
  8
16 学校
 10
-20.363743
 20
-112.462405
  0
VERTEX
  8
16 学校
 10
-20.654597
 20
-112.212979
  0
VERTEX
  8
16 学校
 10
-20.822891
 20
-112.873408
  0
VERTEX
  8
16 学校
 10
-25.546405
 20
-111.456087
  0
SEQEND
  0
POLYLINE
  8
16 学校
 40
0.105834
 41
0.105834
 62
1
 66
1
 10
0
 20
0
 30
0
 70
1
  0
VERTEX
  8
16 学校
 10
-53.862685
 20
-28.144368
  0
VERTEX
  8
16 学校
 10
-52.252351
 20
-28.249616
  0
VERTEX
  8
16 学校
 10
-52.221861
 20
-28.439787
  0
VERTEX
  8
16 学校
 10
-51.641618
 20
-28.528154
  0
VERTEX
  8
16 学校
 10
-51.954176
 20
-31.149027
  0
VERTEX
  8
16 学校
 10
-51.624220
 20
-31.228092
  0
VERTEX
  8
16 学校
 10
-51.741526
 20
-32.138292
  0
VERTEX
  8
16 学校
 10
-52.031433
 20
-32.089027
  0
VERTEX
  8
16 学校
 10
-52.051328
 20
-32.169299
  0
VERTEX
  8
16 学校
 10
-54.431990
 20
-31.926073
  0
VERTEX
  8
16 学校
 10
-54.364724
 20
-30.945421
  0
VERTEX
  8
16 学校
 10
-54.174640
 20
-30.955239
  0
SEQEND
  0
POLYLINE
  8
16 学校
 40
0.105834
 41
0.105834
 62
1
 66
1
 10
0
 20
0
 30
0
 70
1
  0
VERTEX
  8
16 学校
 10
-69.360114
 20
-31.588624
  0
VERTEX
  8
16 学校
 10
-68.790205
 20
-31.627209
  0
VERTEX
  8
16 学校
 10
-68.866687
 20
-32.877270
  0
VERTEX
  8
16 学校
 10
-69.496713
 20
-32.809057
  0
SEQEND
  0
POLYLINE
  8
16 学校
 40
0.105834
 41
0.105834
 62
1
 66
1
 10
0
 20
0
 30
0
  0
VERTEX
  8
16 学校
 10
-71.687118
 20
-36.775076
  0
VERTEX
  8
16 学校
 10
-67.524641
 20
-37.153522
  0
VERTEX
  8
16 学校
 10
-67.255061
 20
-33.482577
  0
VERTEX
  8
16 学校
 10
-71.687118
 20
-33.175789
  0
SEQEND
  0
POLYLINE
  8
16 学校
 40
0.105834
 41
0.105834
 62
1
 66
1
 10
0
 20
0
 30
0
 70
1
  0
VERTEX
  8
16 学校
 10
-71.696248
 20
-140.345634
  0
VERTEX
  8
16 学校
 10
-71.689874
 20
-139.025809
  0
VERTEX
  8
16 学校
 10
-71.239770
 20
-139.024603
  0
VERTEX
  8
16 学校
 10
-71.246057
 20
-140.344600
  0
SEQEND
  0
POLYLINE
  8
16 学校
 40
0.105834
 41
0.105834
 62
1
 66
1
 10
0
 20
0
 30
0
  0
VERTEX
  8
16 学校
 10
-71.687118
 20
-135.193461
  0
VERTEX
  8
16 学校
 10
-71.010755
 20
-135.203796
  0
VERTEX
  8
16 学校
 10
-71.013081
 20
-134.273959
  0
VERTEX
  8
16 学校
 10
-71.333132
 20
-134.274820
  0
VERTEX
  8
16 学校
 10
-71.324520
 20
-133.804562
  0
VERTEX
  8
16 学校
 10
-71.687118
 20
-133.801978
  0
SEQEND
  0
POLYLINE
  8
16 学校
 40
0.105834
 41
0.105834
 62
1
 66
1
 10
0
 20
0
 30
0
  0
VERTEX
  8
16 学校
 10
-71.687118
 20
-133.435762
  0
VERTEX
  8
16 学校
 10
-69.555452
 20
-133.429733
  0
VERTEX
  8
16 学校
 10
-69.548131
 20
-132.500068
  0
VERTEX
  8
16 学校
 10
-71.687118
 20
-132.498863
  0
SEQEND
  0
POLYLINE
  8
16 学校
 40
0.105834
 41
0.105834
 62
1
 66
1
 10
0
 20
0
 30
0
 70
1
  0
VERTEX
  8
16 学校
 10
-25.144877
 20
-115.685657
  0
VERTEX
  8
16 学校
 10
-25.135317
 20
-115.485496
  0
VERTEX
  8
16 学校
 10
-25.805306
 20
-115.437609
  0
VERTEX
  8
16 学校
 10
-25.776625
 20
-115.047449
  0
VERTEX
  8
16 学校
 10
-25.906592
 20
-115.037975
  0
VERTEX
  8
16 学校
 10
-25.819775
 20
-113.997722
  0
VERTEX
  8
16 学校
 10
-25.619528
 20
-113.986698
  0
VERTEX
  8
16 学校
 10
-25.610829
 20
-113.526947
  0
VERTEX
  8
16 学校
 10
-20.959146
 20
-114.084022
  0
VERTEX
  8
16 学校
 10
-21.173518
 20
-116.164356
  0
SEQEND
  0
POLYLINE
  8
16 学校
 40
0.105834
 41
0.105834
 62
1
 66
1
 10
0
 20
0
 30
0
 70
1
  0
VERTEX
  8
16 学校
 10
5.988303
 20
-130.958723
  0
VERTEX
  8
16 学校
 10
6.398616
 20
-131.057598
  0
VERTEX
  8
16 学校
 10
6.081838
 20
-132.248575
  0
VERTEX
  8
16 学校
 10
5.641724
 20
-132.139709
  0
SEQEND
  0
POLYLINE
  8
16 学校
 40
0.105834
 41
0.105834
 62
1
 66
1
 10
0
 20
0
 30
0
 70
1
  0
VERTEX
  8
16 学校
 10
30.912692
 20
-150.359211
  0
VERTEX
  8
16 学校
 10
30.964369
 20
-150.989151
  0
VERTEX
  8
16 学校
 10
30.654480
 20
-151.009822
  0
VERTEX
  8
16 学校
 10
30.602976
 20
-150.400036
  0
SEQEND
  0
POLYLINE
  8
16 学校
 40
0.105834
 41
0.105834
 62
1
 66
1
 10
0
 20
0
 30
0
 70
1
  0
VERTEX
  8
16 学校
 10
29.349298
 20
-145.533636
  0
VERTEX
  8
16 学校
 10
29.226307
 20
-144.483908
  0
VERTEX
  8
16 学校
 10
28.825985
 20
-144.525078
  0
VERTEX
  8
16 学校
 10
28.743646
 20
-143.575259
  0
VERTEX
  8
16 学校
 10
29.163606
 20
-143.533917
  0
VERTEX
  8
16 学校
 10
28.968268
 20
-141.534716
  0
VERTEX
  8
16 学校
 10
37.166096
 20
-140.821921
  0
VERTEX
  8
16 学校
 10
37.176432
 20
-140.931648
  0
VERTEX
  8
16 学校
 10
37.686481
 20
-140.910461
  0
VERTEX
  8
16 学校
 10
37.749527
 20
-142.049933
  0
VERTEX
  8
16 学校
 10
37.269278
 20
-142.031502
  0
VERTEX
  8
16 学校
 10
37.279269
 20
-141.981375
  0
VERTEX
  8
16 学校
 10
30.271211
 20
-142.671260
  0
VERTEX
  8
16 学校
 10
30.488598
 20
-145.440445
  0
SEQEND
  0
POLYLINE
  8
16 学校
 40
0.105834
 41
0.105834
 62
1
 66
1
 10
0
 20
0
 30
0
 70
1
  0
VERTEX
  8
16 学校
 10
29.232508
 20
-139.534136
  0
VERTEX
  8
16 学校
 10
30.351827
 20
-139.390475
  0
VERTEX
  8
16 学校
 10
30.495833
 20
-140.730626
  0
VERTEX
  8
16 学校
 10
29.406142
 20
-140.843453
  0
SEQEND
  0
POLYLINE
  8
16 学校
 40
0.105834
 41
0.105834
 62
1
 66
1
 10
0
 20
0
 30
0
 70
1
  0
VERTEX
  8
16 学校
 10
25.186218
 20
-54.348618
  0
VERTEX
  8
16 学校
 10
24.827237
 20
-51.159990
  0
VERTEX
  8
16 学校
 10
24.967798
 20
-51.116237
  0
VERTEX
  8
16 学校
 10
24.916466
 20
-50.789296
  0
VERTEX
  8
16 学校
 10
25.596187
 20
-50.677674
  0
VERTEX
  8
16 学校
 10
25.564837
 20
-50.278040
  0
VERTEX
  8
16 学校
 10
25.155212
 20
-50.328683
  0
VERTEX
  8
16 学校
 10
24.775560
 20
-46.909749
  0
VERTEX
  8
16 学校
 10
25.125240
 20
-46.858761
  0
VERTEX
  8
16 学校
 10
25.043590
 20
-46.238985
  0
VERTEX
  8
16 学校
 10
26.543250
 20
-46.044680
  0
VERTEX
  8
16 学校
 10
26.644881
 20
-46.724402
  0
VERTEX
  8
16 学校
 10
27.624672
 20
-46.621737
  0
VERTEX
  8
16 学校
 10
27.634318
 20
-46.501847
  0
VERTEX
  8
16 学校
 10
29.024079
 20
-46.357841
  0
VERTEX
  8
16 学校
 10
28.952420
 20
-45.757702
  0
VERTEX
  8
16 学校
 10
29.322598
 20
-45.747022
  0
VERTEX
  8
16 学校
 10
29.383749
 20
-46.306854
  0
VERTEX
  8
16 学校
 10
31.833227
 20
-46.030038
  0
VERTEX
  8
16 学校
 10
31.771560
 20
-45.587169
  0
VERTEX
  8
16 学校
 10
32.111248
 20
-45.556163
  0
VERTEX
  8
16 学校
 10
32.203577
 20
-46.159058
  0
VERTEX
  8
16 学校
 10
34.101837
 20
-45.926857
  0
VERTEX
  8
16 学校
 10
34.111483
 20
-45.806795
  0
VERTEX
  8
16 学校
 10
34.461507
 20
-45.775617
  0
VERTEX
  8
16 学校
 10
34.451861
 20
-45.885860
  0
VERTEX
  8
16 学校
 10
34.781559
 20
-45.864845
  0
VERTEX
  8
16 学校
 10
34.739873
 20
-45.305014
  0
VERTEX
  8
16 学校
 10
35.949798
 20
-45.181334
  0
VERTEX
  8
16 学校
 10
36.083124
 20
-46.500814
  0
VERTEX
  8
16 学校
 10
35.473683
 20
-46.572989
  0
VERTEX
  8
16 学校
 10
35.463003
 20
-46.292901
  0
VERTEX
  8
16 学校
 10
34.932799
 20
-46.314433
  0
VERTEX
  8
16 学校
 10
34.994467
 20
-46.794165
  0
VERTEX
  8
16 学校
 10
32.285916
 20
-47.038941
  0
VERTEX
  8
16 学校
 10
32.306586
 20
-47.208785
  0
VERTEX
  8
16 学校
 10
27.797962
 20
-47.721247
  0
VERTEX
  8
16 学校
 10
27.797273
 20
-47.551230
  0
VERTEX
  8
16 学校
 10
25.868179
 20
-47.826667
  0
VERTEX
  8
16 学校
 10
26.126046
 20
-50.616006
  0
VERTEX
  8
16 学校
 10
26.705859
 20
-50.544003
  0
VERTEX
  8
16 学校
 10
26.746856
 20
-51.014262
  0
VERTEX
  8
16 学校
 10
26.826783
 20
-50.963963
  0
VERTEX
  8
16 学校
 10
27.155964
 20
-54.133126
  0
SEQEND
  0
POLYLINE
  8
16 学校
 40
0.105834
 41
0.105834
 62
1
 66
1
 10
0
 20
0
 30
0
  0
VERTEX
  8
16 学校
 10
-71.687118
 20
-72.050836
  0
VERTEX
  8
16 学校
 10
-68.595987
 20
-72.406545
  0
VERTEX
  8
16 学校
 10
-68.517955
 20
-71.686687
  0
VERTEX
  8
16 学校
 10
-71.388857
 20
-71.374560
  0
VERTEX
  8
16 学校
 10
-71.359660
 20
-71.104635
  0
VERTEX
  8
16 学校
 10
-71.669806
 20
-71.035388
  0
VERTEX
  8
16 学校
 10
-71.543112
 20
-69.904873
  0
VERTEX
  8
16 学校
 10
-71.687118
 20
-69.878345
  0
SEQEND
  0
POLYLINE
  8
16 学校
 40
0.105834
 41
0.105834
 62
1
 66
1
 10
0
 20
0
 30
0
  0
VERTEX
  8
16 学校
 10
-71.687118
 20
-68.885979
  0
VERTEX
  8
16 学校
 10
-71.385756
 20
-68.924565
  0
VERTEX
  8
16 学校
 10
-71.100587
 20
-67.193738
  0
VERTEX
  8
16 学校
 10
-71.687118
 20
-67.123285
  0
SEQEND
  0
POLYLINE
  8
16 学校
 40
0.105834
 41
0.105834
 62
1
 66
1
 10
0
 20
0
 30
0
  0
VERTEX
  8
16 学校
 10
-71.687118
 20
-33.068302
  0
VERTEX
  8
16 学校
 10
-71.185940
 20
-33.123596
  0
VERTEX
  8
16 学校
 10
-71.156398
 20
-32.953752
  0
VERTEX
  8
16 学校
 10
-70.266180
 20
-33.041602
  0
VERTEX
  8
16 学校
 10
-70.151026
 20
-31.290794
  0
VERTEX
  8
16 学校
 10
-70.961404
 20
-31.212934
  0
VERTEX
  8
16 学校
 10
-70.941939
 20
-31.093044
  0
VERTEX
  8
16 学校
 10
-71.687118
 20
-31.031549
  0
SEQEND
  0
POLYLINE
  8
16 学校
 40
0.105834
 41
0.105834
 62
1
 66
1
 10
0
 20
0
 30
0
  0
VERTEX
  8
16 学校
 10
-71.687118
 20
-30.436060
  0
VERTEX
  8
16 学校
 10
-68.802694
 20
-30.727172
  0
VERTEX
  8
16 学校
 10
-68.745333
 20
-29.796991
  0
VERTEX
  8
16 学校
 10
-70.145773
 20
-29.610782
  0
VERTEX
  8
16 学校
 10
-70.126997
 20
-29.230786
  0
VERTEX
  8
16 学校
 10
-70.796900
 20
-29.212699
  0
VERTEX
  8
16 学校
 10
-70.816192
 20
-29.562723
  0
VERTEX
  8
16 学校
 10
-71.687118
 20
-29.471772
  0
SEQEND
  0
POLYLINE
  8
16 学校
 40
0.105834
 41
0.105834
 62
1
 66
1
 10
0
 20
0
 30
0
 70
1
  0
VERTEX
  8
16 学校
 10
-47.804532
 20
-115.838793
  0
VERTEX
  8
16 学校
 10
-47.771115
 20
-117.059225
  0
VERTEX
  8
16 学校
 10
-47.440986
 20
-117.057847
  0
VERTEX
  8
16 学校
 10
-47.429273
 20
-117.667805
  0
VERTEX
  8
16 学校
 10
-47.809442
 20
-117.679002
  0
VERTEX
  8
16 学校
 10
-47.850783
 20
-117.219079
  0
VERTEX
  8
16 学校
 10
-49.376625
 20
-117.225280
  0
VERTEX
  8
16 学校
 10
-49.325896
 20
-113.875248
  0
VERTEX
  8
16 学校
 10
-47.819691
 20
-113.969300
  0
VERTEX
  8
16 学校
 10
-47.829423
 20
-114.128981
  0
VERTEX
  8
16 学校
 10
-44.159340
 20
-114.068691
  0
VERTEX
  8
16 学校
 10
-44.159340
 20
-114.148790
  0
VERTEX
  8
16 学校
 10
-42.949156
 20
-114.155508
  0
VERTEX
  8
16 学校
 10
-42.917289
 20
-118.385079
  0
VERTEX
  8
16 学校
 10
-44.137636
 20
-118.379050
  0
VERTEX
  8
16 学校
 10
-44.158392
 20
-117.988718
  0
VERTEX
  8
16 学校
 10
-44.248396
 20
-117.999053
  0
VERTEX
  8
16 学校
 10
-44.274579
 20
-115.779020
  0
VERTEX
  8
16 学校
 10
-46.054671
 20
-115.813988
  0
VERTEX
  8
16 学校
 10
-46.054068
 20
-116.013977
  0
VERTEX
  8
16 学校
 10
-46.854111
 20
-116.006225
  0
VERTEX
  8
16 学校
 10
-46.854627
 20
-115.846544
  0
SEQEND
  0
POLYLINE
  8
16 学校
 40
0.105834
 41
0.105834
 62
1
 66
1
 10
0
 20
0
 30
0
 70
1
  0
VERTEX
  8
16 学校
 10
-46.010574
 20
-117.184283
  0
VERTEX
  8
16 学校
 10
-45.670627
 20
-117.242850
  0
VERTEX
  8
16 学校
 10
-45.450139
 20
-117.362568
  0
VERTEX
  8
16 学校
 10
-45.149725
 20
-117.551533
  0
VERTEX
  8
16 学校
 10
-44.939142
 20
-117.780977
  0
VERTEX
  8
16 学校
 10
-44.778600
 20
-118.060376
  0
VERTEX
  8
16 学校
 10
-44.667322
 20
-118.360102
  0
VERTEX
  8
16 学校
 10
-44.616249
 20
-118.760252
  0
VERTEX
  8
16 学校
 10
-44.645360
 20
-119.120094
  0
VERTEX
  8
16 学校
 10
-44.744407
 20
-119.410346
  0
VERTEX
  8
16 学校
 10
-44.933458
 20
-119.730914
  0
VERTEX
  8
16 学校
 10
-45.152998
 20
-119.951746
  0
VERTEX
  8
16 学校
 10
-45.412501
 20
-120.112116
  0
VERTEX
  8
16 学校
 10
-45.712226
 20
-120.273003
  0
VERTEX
  8
16 学校
 10
-46.021856
 20
-120.343972
  0
VERTEX
  8
16 学校
 10
-46.331917
 20
-120.314861
  0
VERTEX
  8
16 学校
 10
-46.632245
 20
-120.275587
  0
VERTEX
  8
16 学校
 10
-46.942392
 20
-120.156386
  0
VERTEX
  8
16 学校
 10
-47.202843
 20
-119.987230
  0
VERTEX
  8
16 学校
 10
-47.463466
 20
-119.788103
  0
VERTEX
  8
16 学校
 10
-47.634171
 20
-119.538504
  0
VERTEX
  8
16 学校
 10
-47.775076
 20
-119.218625
  0
VERTEX
  8
16 学校
 10
-47.825978
 20
-118.879108
  0
VERTEX
  8
16 学校
 10
-47.796953
 20
-118.518921
  0
VERTEX
  8
16 学校
 10
-47.688001
 20
-118.148227
  0
VERTEX
  8
16 学校
 10
-47.508941
 20
-117.828348
  0
VERTEX
  8
16 学校
 10
-47.289573
 20
-117.547571
  0
VERTEX
  8
16 学校
 10
-47.020337
 20
-117.366530
  0
VERTEX
  8
16 学校
 10
-46.720612
 20
-117.256286
  0
VERTEX
  8
16 学校
 10
-46.380924
 20
-117.164990
  0
SEQEND
  0
POLYLINE
  8
16 学校
 40
0.105834
 41
0.105834
 62
1
 66
1
 10
0
 20
0
 30
0
 70
1
  0
VERTEX
  8
16 学校
 10
-3.292585
 20
-130.714636
  0
VERTEX
  8
16 学校
 10
-2.906473
 20
-129.303516
  0
VERTEX
  8
16 学校
 10
-2.676167
 20
-129.362945
  0
VERTEX
  8
16 学校
 10
-2.557827
 20
-128.872877
  0
VERTEX
  8
16 学校
 10
-0.866447
 20
-129.287669
  0
VERTEX
  8
16 学校
 10
-0.737341
 20
-129.027562
  0
VERTEX
  8
16 学校
 10
0.513667
 20
-129.373797
  0
VERTEX
  8
16 学校
 10
0.484211
 20
-129.603931
  0
VERTEX
  8
16 学校
 10
0.764816
 20
-129.673350
  0
VERTEX
  8
16 学校
 10
0.675846
 20
-130.173753
  0
VERTEX
  8
16 学校
 10
0.466038
 20
-130.154116
  0
VERTEX
  8
16 学校
 10
0.228670
 20
-131.084986
  0
VERTEX
  8
16 学校
 10
0.969111
 20
-131.302718
  0
VERTEX
  8
16 学校
 10
1.147224
 20
-130.602326
  0
VERTEX
  8
16 学校
 10
1.427226
 20
-130.661582
  0
VERTEX
  8
16 学校
 10
1.466845
 20
-130.481402
  0
VERTEX
  8
16 学校
 10
2.157332
 20
-130.639361
  0
VERTEX
  8
16 学校
 10
2.186960
 20
-130.490015
  0
VERTEX
  8
16 学校
 10
3.297666
 20
-130.766313
  0
VERTEX
  8
16 学校
 10
3.208093
 20
-130.946493
  0
VERTEX
  8
16 学校
 10
3.548471
 20
-131.035377
  0
VERTEX
  8
16 学校
 10
3.400158
 20
-131.715787
  0
VERTEX
  8
16 学校
 10
2.299616
 20
-131.429154
  0
VERTEX
  8
16 学校
 10
2.240015
 20
-131.569198
  0
VERTEX
  8
16 学校
 10
5.232444
 20
-132.420831
  0
VERTEX
  8
16 学校
 10
5.232788
 20
-132.540893
  0
VERTEX
  8
16 学校
 10
5.973144
 20
-132.708670
  0
VERTEX
  8
16 学校
 10
5.705631
 20
-133.679504
  0
VERTEX
  8
16 学校
 10
1.952865
 20
-132.690067
  0
VERTEX
  8
16 学校
 10
1.576658
 20
-134.030906
  0
VERTEX
  8
16 学校
 10
1.866564
 20
-134.110316
  0
VERTEX
  8
16 学校
 10
1.668987
 20
-134.811053
  0
VERTEX
  8
16 学校
 10
3.019990
 20
-135.197078
  0
VERTEX
  8
16 学校
 10
3.109218
 20
-134.886845
  0
VERTEX
  8
16 学校
 10
3.979799
 20
-135.114568
  0
VERTEX
  8
16 学校
 10
3.890915
 20
-135.484401
  0
VERTEX
  8
16 学校
 10
4.781478
 20
-135.692142
  0
VERTEX
  8
16 学校
 10
4.554445
 20
-136.762884
  0
VERTEX
  8
16 学校
 10
2.472905
 20
-136.228546
  0
VERTEX
  8
16 学校
 10
2.404003
 20
-136.568752
  0
VERTEX
  8
16 学校
 10
1.723420
 20
-136.410449
  0
VERTEX
  8
16 学校
 10
1.842276
 20
-136.040098
  0
VERTEX
  8
16 学校
 10
0.030920
 20
-135.585515
  0
VERTEX
  8
16 学校
 10
0.229014
 20
-134.904760
  0
VERTEX
  8
16 学校
 10
0.169069
 20
-134.864797
  0
VERTEX
  8
16 学校
 10
0.277935
 20
-134.484800
  0
VERTEX
  8
16 学校
 10
0.337880
 20
-134.494619
  0
VERTEX
  8
16 学校
 10
0.496097
 20
-133.794054
  0
VERTEX
  8
16 学校
 10
1.126467
 20
-133.972339
  0
VERTEX
  8
16 学校
 10
1.492597
 20
-132.601355
  0
VERTEX
  8
16 学校
 10
0.641825
 20
-132.313860
  0
VERTEX
  8
16 学校
 10
0.860160
 20
-131.623114
  0
VERTEX
  8
16 学校
 10
0.139183
 20
-131.455337
  0
VERTEX
  8
16 学校
 10
0.120148
 20
-131.625181
  0
SEQEND
  0
POLYLINE
  8
16 学校
 40
0.105834
 41
0.105834
 62
1
 66
1
 10
0
 20
0
 30
0
  0
VERTEX
  8
16 学校
 10
-71.687118
 20
-23.904635
  0
VERTEX
  8
16 学校
 10
-71.221683
 20
-23.963891
  0
VERTEX
  8
16 学校
 10
-71.368186
 20
-25.284232
  0
VERTEX
  8
16 学校
 10
-71.687118
 20
-25.255810
  0
SEQEND
  0
POLYLINE
  8
16 学校
 40
0.105834
 41
0.105834
 62
1
 66
1
 10
0
 20
0
 30
0
  0
VERTEX
  8
16 学校
 10
-71.687118
 20
-22.720892
  0
VERTEX
  8
16 学校
 10
-71.074921
 20
-22.783421
  0
VERTEX
  8
16 学校
 10
-71.016354
 20
-22.293353
  0
VERTEX
  8
16 学校
 10
-71.536480
 20
-22.224623
  0
VERTEX
  8
16 学校
 10
-71.585918
 20
-22.464748
  0
VERTEX
  8
16 学校
 10
-71.687118
 20
-22.453379
  0
SEQEND
  0
POLYLINE
  8
16 学校
 40
0.105834
 41
0.105834
 62
1
 66
1
 10
0
 20
0
 30
0
  0
VERTEX
  8
16 学校
 10
-71.687118
 20
-21.240009
  0
VERTEX
  8
16 学校
 10
-71.439242
 20
-21.274460
  0
VERTEX
  8
16 学校
 10
-71.507455
 20
-21.894581
  0
VERTEX
  8
16 学校
 10
-71.007310
 20
-21.953148
  0
VERTEX
  8
16 学校
 10
-70.949088
 20
-21.392972
  0
VERTEX
  8
16 学校
 10
-70.850816
 20
-20.652789
  0
VERTEX
  8
16 学校
 10
-71.687118
 20
-20.546162
  0
SEQEND
  0
POLYLINE
  8
16 学校
 40
0.105834
 41
0.105834
 62
1
 66
1
 10
0
 20
0
 30
0
  0
VERTEX
  8
16 学校
 10
-71.687118
 20
-26.993699
  0
VERTEX
  8
16 学校
 10
-68.962030
 20
-27.397467
  0
VERTEX
  8
16 学校
 10
-68.932402
 20
-27.287395
  0
VERTEX
  8
16 学校
 10
-67.671834
 20
-27.443976
  0
VERTEX
  8
16 学校
 10
-67.829276
 20
-28.464419
  0
VERTEX
  8
16 学校
 10
-68.209100
 20
-28.425662
  0
VERTEX
  8
16 学校
 10
-68.636639
 20
-32.886572
  0
VERTEX
  8
16 学校
 10
-68.126762
 20
-32.985275
  0
VERTEX
  8
16 学校
 10
-68.145882
 20
-33.145300
  0
VERTEX
  8
16 学校
 10
-67.155497
 20
-33.292751
  0
VERTEX
  8
16 学校
 10
-66.839063
 20
-28.521608
  0
VERTEX
  8
16 学校
 10
-67.448935
 20
-28.473377
  0
VERTEX
  8
16 学校
 10
-67.321379
 20
-27.632940
  0
VERTEX
  8
16 学校
 10
-66.811244
 20
-27.671526
  0
VERTEX
  8
16 学校
 10
-66.684808
 20
-26.421120
  0
VERTEX
  8
16 学校
 10
-66.324707
 20
-26.470213
  0
VERTEX
  8
16 学校
 10
-66.208520
 20
-25.059782
  0
VERTEX
  8
16 学校
 10
-67.178665
 20
-24.942476
  0
VERTEX
  8
16 学校
 10
-67.100461
 20
-24.402282
  0
VERTEX
  8
16 学校
 10
-65.960214
 20
-24.509080
  0
VERTEX
  8
16 学校
 10
-65.823184
 20
-23.408710
  0
VERTEX
  8
16 学校
 10
-67.153688
 20
-23.252474
  0
VERTEX
  8
16 学校
 10
-67.103993
 20
-23.062303
  0
VERTEX
  8
16 学校
 10
-66.013699
 20
-23.189256
  0
VERTEX
  8
16 学校
 10
-65.945400
 20
-22.669043
  0
VERTEX
  8
16 学校
 10
-67.715759
 20
-22.474050
  0
VERTEX
  8
16 学校
 10
-67.794136
 20
-23.154288
  0
VERTEX
  8
16 学校
 10
-70.374615
 20
-22.901417
  0
VERTEX
  8
16 学校
 10
-70.277032
 20
-22.031180
  0
VERTEX
  8
16 学校
 10
-70.677096
 20
-22.012404
  0
VERTEX
  8
16 学校
 10
-70.510783
 20
-20.681900
  0
VERTEX
  8
16 学校
 10
-64.459348
 20
-21.264814
  0
VERTEX
  8
16 学校
 10
-64.361765
 20
-20.324641
  0
VERTEX
  8
16 学校
 10
-71.687118
 20
-19.581702
  0
SEQEND
  0
POLYLINE
  8
16 学校
 40
0.105834
 41
0.105834
 62
1
 66
1
 10
0
 20
0
 30
0
 70
1
  0
VERTEX
  8
16 学校
 10
-64.033187
 20
-20.902732
  0
VERTEX
  8
16 学校
 10
-62.633006
 20
-20.878788
  0
VERTEX
  8
16 学校
 10
-62.632919
 20
-20.938905
  0
VERTEX
  8
16 学校
 10
-62.063011
 20
-20.947174
  0
VERTEX
  8
16 学校
 10
-62.083165
 20
-20.837275
  0
VERTEX
  8
16 学校
 10
-61.522903
 20
-20.855706
  0
VERTEX
  8
16 学校
 10
-61.522730
 20
-20.915651
  0
VERTEX
  8
16 学校
 10
-57.832407
 20
-21.105477
  0
VERTEX
  8
16 学校
 10
-57.852733
 20
-20.955614
  0
VERTEX
  8
16 学校
 10
-57.442764
 20
-20.954236
  0
VERTEX
  8
16 学校
 10
-57.442161
 20
-21.124253
  0
VERTEX
  8
16 学校
 10
-53.762173
 20
-21.183681
  0
VERTEX
  8
16 学校
 10
-53.764327
 20
-20.403879
  0
VERTEX
  8
16 学校
 10
-52.254246
 20
-20.429717
  0
VERTEX
  8
16 学校
 10
-52.271816
 20
-21.259818
  0
VERTEX
  8
16 学校
 10
-51.881828
 20
-21.268603
  0
VERTEX
  8
16 学校
 10
-51.882948
 20
-20.828662
  0
VERTEX
  8
16 学校
 10
-50.923052
 20
-20.855878
  0
VERTEX
  8
16 学校
 10
-51.633177
 20
-27.918024
  0
VERTEX
  8
16 学校
 10
-52.623476
 20
-27.860835
  0
VERTEX
  8
16 学校
 10
-52.233489
 20
-24.199709
  0
VERTEX
  8
16 学校
 10
-52.403505
 20
-24.190235
  0
VERTEX
  8
16 学校
 10
-52.375255
 20
-23.660031
  0
VERTEX
  8
16 学校
 10
-52.195334
 20
-23.659515
  0
VERTEX
  8
16 学校
 10
-52.069329
 20
-22.219111
  0
VERTEX
  8
16 学校
 10
-62.639982
 20
-21.968996
  0
VERTEX
  8
16 学校
 10
-62.714741
 20
-23.888959
  0
VERTEX
  8
16 学校
 10
-64.194763
 20
-23.883103
  0
SEQEND
  0
POLYLINE
  8
18 高速分離帯
 40
0.105834
 41
0.105834
 62
5
 66
1
 10
0
 20
0
 30
0
  0
VERTEX
  8
18 高速分離帯
 10
-16.999759
 20
-159.787291
  0
VERTEX
  8
18 高速分離帯
 10
-16.864365
 20
-154.190009
  0
VERTEX
  8
18 高速分離帯
 10
-16.726216
 20
-156.898216
  0
VERTEX
  8
18 高速分離帯
 10
-15.833414
 20
-159.066400
  0
VERTEX
  8
18 高速分離帯
 10
-15.272635
 20
-159.787291
  0
SEQEND
  0
POLYLINE
  8
18 高速分離帯
 40
0.105834
 41
0.105834
 62
5
 66
1
 10
0
 20
0
 30
0
  0
VERTEX
  8
18 高速分離帯
 10
-13.931882
 20
-159.787291
  0
VERTEX
  8
18 高速分離帯
 10
-14.909606
 20
-158.530340
  0
VERTEX
  8
18 高速分離帯
 10
-15.676317
 20
-156.668427
  0
VERTEX
  8
18 高速分離帯
 10
-15.790006
 20
-153.824827
  0
VERTEX
  8
18 高速分離帯
 10
-14.402312
 20
-137.611761
  0
VERTEX
  8
18 高速分離帯
 10
-14.164858
 20
-132.746739
  0
VERTEX
  8
18 高速分離帯
 10
-12.530752
 20
-109.412788
  0
VERTEX
  8
18 高速分離帯
 10
-6.494821
 20
-47.004490
  0
VERTEX
  8
18 高速分離帯
 10
-5.901055
 20
-39.998327
  0
VERTEX
  8
18 高速分離帯
 10
-5.660155
 20
-36.747687
  0
VERTEX
  8
18 高速分離帯
 10
-5.660155
 20
-33.247792
  0
VERTEX
  8
18 高速分離帯
 10
-6.696360
 20
-9.697833
  0
SEQEND
  0
POLYLINE
  8
18 高速分離帯
 40
0.105834
 41
0.105834
 62
5
 66
1
 10
0
 20
0
 30
0
  0
VERTEX
  8
18 高速分離帯
 10
-18.057926
 20
-159.787291
  0
VERTEX
  8
18 高速分離帯
 10
-17.922533
 20
-154.200172
  0
VERTEX
  8
18 高速分離帯
 10
-18.742471
 20
-141.300965
  0
VERTEX
  8
18 高速分離帯
 10
-18.622581
 20
-137.126688
  0
VERTEX
  8
18 高速分離帯
 10
-18.144399
 20
-130.927200
  0
VERTEX
  8
18 高速分離帯
 10
-17.650713
 20
-125.776578
  0
VERTEX
  8
18 高速分離帯
 10
-14.718746
 20
-110.048412
  0
VERTEX
  8
18 高速分離帯
 10
-8.602802
 20
-46.813114
  0
VERTEX
  8
18 高速分離帯
 10
-8.011103
 20
-39.830722
  0
VERTEX
  8
18 高速分離帯
 10
-7.776835
 20
-36.669483
  0
VERTEX
  8
18 高速分離帯
 10
-7.776835
 20
-33.294302
  0
VERTEX
  8
18 高速分離帯
 10
-8.815021
 20
-9.697833
  0
SEQEND
  0
POLYLINE
  8
18 高速分離帯
 40
0.105834
 41
0.105834
 62
5
 66
1
 10
0
 20
0
 30
0
  0
VERTEX
  8
18 高速分離帯
 10
-14.806425
 20
-127.408185
  0
VERTEX
  8
18 高速分離帯
 10
-15.644277
 20
-137.991585
  0
VERTEX
  8
18 高速分離帯
 10
-16.814756
 20
-150.894410
  0
VERTEX
  8
18 高速分離帯
 10
-16.857303
 20
-154.273726
  0
SEQEND
  0
POLYLINE
  8
18 高速分離帯
 40
0.105834
 41
0.105834
 62
5
 66
1
 10
0
 20
0
 30
0
  0
VERTEX
  8
18 高速分離帯
 10
-16.790812
 20
-127.231795
  0
VERTEX
  8
18 高速分離帯
 10
-17.099495
 20
-131.288765
  0
VERTEX
  8
18 高速分離帯
 10
-17.511100
 20
-137.139091
  0
VERTEX
  8
18 高速分離帯
 10
-17.628665
 20
-141.717824
  0
VERTEX
  8
18 高速分離帯
 10
-16.825436
 20
-150.912153
  0
SEQEND
  0
POLYLINE
  8
18 高速分離帯
 40
0.105834
 41
0.105834
 62
5
 66
1
 10
0
 20
0
 30
0
  0
VERTEX
  8
18 高速分離帯
 10
-16.834910
 20
-150.603470
  0
VERTEX
  8
18 高速分離帯
 10
-16.702617
 20
-137.727000
  0
VERTEX
  8
18 高速分離帯
 10
-15.820667
 20
-126.790820
  0
VERTEX
  8
18 高速分離帯
 10
-13.571695
 20
-109.504600
  0
VERTEX
  8
18 高速分離帯
 10
-6.813322
 20
-38.932236
  0
VERTEX
  8
18 高速分離帯
 10
-6.625822
 20
-36.789373
  0
VERTEX
  8
18 高速分離帯
 10
-6.663115
 20
-33.333576
  0
VERTEX
  8
18 高速分離帯
 10
-7.674171
 20
-9.697833
  0
SEQEND
  0
POLYLINE
  8
21 デッキ・歩道橋
 40
0.035278
 41
0.035278
 62
37
 66
1
 10
0
 20
0
 30
0
 70
1
  0
VERTEX
  8
21 デッキ・歩道橋
 10
48.193744
 20
-127.661057
  0
VERTEX
  8
21 デッキ・歩道橋
 10
48.152747
 20
-127.239891
  0
VERTEX
  8
21 デッキ・歩道橋
 10
46.140627
 20
-127.435229
  0
VERTEX
  8
21 デッキ・歩道橋
 10
45.955796
 20
-123.556716
  0
VERTEX
  8
21 デッキ・歩道橋
 10
47.837175
 20
-123.347598
  0
VERTEX
  8
21 デッキ・歩道橋
 10
47.790666
 20
-122.926949
  0
VERTEX
  8
21 デッキ・歩道橋
 10
44.556045
 20
-123.286447
  0
VERTEX
  8
21 デッキ・歩道橋
 10
44.602554
 20
-123.707096
  0
VERTEX
  8
21 デッキ・歩道橋
 10
45.534286
 20
-123.603570
  0
VERTEX
  8
21 デッキ・歩道橋
 10
45.718772
 20
-127.476226
  0
VERTEX
  8
21 デッキ・歩道橋
 10
43.530778
 20
-127.689479
  0
VERTEX
  8
21 デッキ・歩道橋
 10
42.446600
 20
-129.597902
  0
VERTEX
  8
21 デッキ・歩道橋
 10
42.459175
 20
-129.770330
  0
VERTEX
  8
21 デッキ・歩道橋
 10
38.139170
 20
-130.060753
  0
VERTEX
  8
21 デッキ・歩道橋
 10
38.040984
 20
-129.066837
  0
VERTEX
  8
21 デッキ・歩道橋
 10
37.619646
 20
-129.108178
  0
VERTEX
  8
21 デッキ・歩道橋
 10
37.939181
 20
-132.342971
  0
VERTEX
  8
21 デッキ・歩道橋
 10
38.360346
 20
-132.301457
  0
VERTEX
  8
21 デッキ・歩道橋
 10
38.180511
 20
-130.482435
  0
VERTEX
  8
21 デッキ・歩道橋
 10
42.489319
 20
-130.192357
  0
VERTEX
  8
21 デッキ・歩道橋
 10
42.610932
 20
-131.898034
  0
VERTEX
  8
21 デッキ・歩道橋
 10
43.033303
 20
-131.867889
  0
VERTEX
  8
21 デッキ・歩道橋
 10
42.878101
 20
-129.695743
  0
VERTEX
  8
21 デッキ・歩道橋
 10
43.790540
 20
-128.089629
  0
SEQEND
  0
POLYLINE
  8
21 デッキ・歩道橋
 40
0.035278
 41
0.035278
 62
37
 66
1
 10
0
 20
0
 30
0
 70
1
  0
VERTEX
  8
21 デッキ・歩道橋
 10
-13.911297
 20
-132.414113
  0
VERTEX
  8
21 デッキ・歩道橋
 10
-14.037130
 20
-133.672442
  0
VERTEX
  8
21 デッキ・歩道橋
 10
-18.608800
 20
-133.315355
  0
VERTEX
  8
21 デッキ・歩道橋
 10
-18.809392
 20
-134.839992
  0
VERTEX
  8
21 デッキ・歩道橋
 10
-18.459627
 20
-134.886329
  0
VERTEX
  8
21 デッキ・歩道橋
 10
-18.302702
 20
-133.693285
  0
VERTEX
  8
21 デッキ・歩道橋
 10
-13.720351
 20
-134.051232
  0
VERTEX
  8
21 デッキ・歩道橋
 10
-13.560240
 20
-132.449253
  0
SEQEND
  0
POLYLINE
  8
21 デッキ・歩道橋
 40
0.035278
 41
0.035278
 62
37
 66
1
 10
0
 20
0
 30
0
 70
1
  0
VERTEX
  8
21 デッキ・歩道橋
 10
11.636572
 20
-104.879358
  0
VERTEX
  8
21 デッキ・歩道橋
 10
10.186522
 20
-104.423397
  0
VERTEX
  8
21 デッキ・歩道橋
 10
10.080585
 20
-104.759985
  0
VERTEX
  8
21 デッキ・歩道橋
 10
11.191463
 20
-105.109147
  0
VERTEX
  8
21 デッキ・歩道橋
 10
9.847351
 20
-109.276017
  0
VERTEX
  8
21 デッキ・歩道橋
 10
8.622095
 20
-108.816955
  0
VERTEX
  8
21 デッキ・歩道橋
 10
8.498243
 20
-109.147341
  0
VERTEX
  8
21 デッキ・歩道橋
 10
10.839889
 20
-110.025674
  0
VERTEX
  8
21 デッキ・歩道橋
 10
10.963741
 20
-109.694943
  0
VERTEX
  8
21 デッキ・歩道橋
 10
10.177910
 20
-109.400213
  0
SEQEND
  0
POLYLINE
  8
21 デッキ・歩道橋
 40
0.035278
 41
0.035278
 62
37
 66
1
 10
0
 20
0
 30
0
 70
1
  0
VERTEX
  8
21 デッキ・歩道橋
 10
-67.675796
 20
-77.788507
  0
VERTEX
  8
21 デッキ・歩道橋
 10
-68.774099
 20
-81.018476
  0
VERTEX
  8
21 デッキ・歩道橋
 10
-69.926233
 20
-80.579741
  0
VERTEX
  8
21 デッキ・歩道橋
 10
-70.077215
 20
-80.975068
  0
VERTEX
  8
21 デッキ・歩道橋
 10
-68.514768
 20
-81.570212
  0
VERTEX
  8
21 デッキ・歩道橋
 10
-67.415173
 20
-78.337142
  0
VERTEX
  8
21 デッキ・歩道橋
 10
-66.229880
 20
-78.778117
  0
VERTEX
  8
21 デッキ・歩道橋
 10
-66.082085
 20
-78.381239
  0
SEQEND
  0
POLYLINE
  8
21 デッキ・歩道橋
 40
0.035278
 41
0.035278
 62
37
 66
1
 10
0
 20
0
 30
0
 70
1
  0
VERTEX
  8
21 デッキ・歩道橋
 10
-6.668541
 20
-49.341141
  0
VERTEX
  8
21 デッキ・歩道橋
 10
-6.713844
 20
-50.021207
  0
VERTEX
  8
21 デッキ・歩道橋
 10
-9.352115
 20
-49.962467
  0
VERTEX
  8
21 デッキ・歩道橋
 10
-9.490092
 20
-51.273335
  0
VERTEX
  8
21 デッキ・歩道橋
 10
-9.069185
 20
-51.317777
  0
VERTEX
  8
21 デッキ・歩道橋
 10
-8.972033
 20
-50.394141
  0
VERTEX
  8
21 デッキ・歩道橋
 10
-6.318517
 20
-50.453052
  0
VERTEX
  8
21 デッキ・歩道橋
 10
-6.246170
 20
-49.369563
  0
SEQEND
  0
POLYLINE
  8
23 園路・他敷地道
  6
AIGENLINE001
 40
0.035278
 41
0.035278
 66
1
 10
0
 20
0
 30
0
 70
128
  0
VERTEX
  8
23 園路・他敷地道
 10
68.366284
 20
-140.717879
  0
VERTEX
  8
23 園路・他敷地道
 10
69.773958
 20
-154.511094
  0
VERTEX
  8
23 園路・他敷地道
 10
70.300372
 20
-154.457006
  0
VERTEX
  8
23 園路・他敷地道
 10
70.213211
 20
-153.604339
  0
VERTEX
  8
23 園路・他敷地道
 10
78.317505
 20
-152.821609
  0
SEQEND
  0
POLYLINE
  8
23 園路・他敷地道
  6
AIGENLINE001
 40
0.035278
 41
0.035278
 66
1
 10
0
 20
0
 30
0
 70
128
  0
VERTEX
  8
23 園路・他敷地道
 10
75.045849
 20
-140.183369
  0
VERTEX
  8
23 園路・他敷地道
 10
74.530976
 20
-140.904259
  0
VERTEX
  8
23 園路・他敷地道
 10
70.362040
 20
-140.990732
  0
VERTEX
  8
23 園路・他敷地道
 10
68.969179
 20
-141.413448
  0
VERTEX
  8
23 園路・他敷地道
 10
68.894420
 20
-140.681016
  0
SEQEND
  0
POLYLINE
  8
23 園路・他敷地道
  6
AIGENLINE001
 40
0.035278
 41
0.035278
 66
1
 10
0
 20
0
 30
0
 70
128
  0
VERTEX
  8
23 園路・他敷地道
 10
77.242628
 20
-140.034884
  0
VERTEX
  8
23 園路・他敷地道
 10
76.652479
 20
-140.732348
  0
VERTEX
  8
23 園路・他敷地道
 10
74.988143
 20
-140.871014
  0
VERTEX
  8
23 園路・他敷地道
 10
75.552626
 20
-140.080876
  0
SEQEND
  0
POLYLINE
  8
23 園路・他敷地道
  6
AIGENLINE001
 40
0.035278
 41
0.035278
 66
1
 10
0
 20
0
 30
0
 70
128
  0
VERTEX
  8
23 園路・他敷地道
 10
77.488265
 20
-140.290684
  0
VERTEX
  8
23 園路・他敷地道
 10
76.827491
 20
-141.071692
  0
VERTEX
  8
23 園路・他敷地道
 10
74.626923
 20
-141.254800
  0
VERTEX
  8
23 園路・他敷地道
 10
70.417851
 20
-141.342478
  0
VERTEX
  8
23 園路・他敷地道
 10
69.005870
 20
-141.771395
  0
VERTEX
  8
23 園路・他敷地道
 10
70.159467
 20
-153.077926
  0
VERTEX
  8
23 園路・他敷地道
 10
78.317505
 20
-152.290027
  0
SEQEND
  0
POLYLINE
  8
23 園路・他敷地道
  6
AIGENLINE001
 40
0.035278
 41
0.035278
 66
1
 10
0
 20
0
 30
0
 70
128
  0
VERTEX
  8
23 園路・他敷地道
 10
73.562382
 20
-54.208230
  0
VERTEX
  8
23 園路・他敷地道
 10
73.386508
 20
-51.306752
  0
VERTEX
  8
23 園路・他敷地道
 10
73.472981
 20
-51.362908
  0
VERTEX
  8
23 園路・他敷地道
 10
75.779142
 20
-52.078114
 42
0.001254
  0
VERTEX
  8
23 園路・他敷地道
 10
78.317505
 20
-52.623821
  0
SEQEND
  0
POLYLINE
  8
23 園路・他敷地道
  6
AIGENLINE001
 40
0.035278
 41
0.035278
 66
1
 10
0
 20
0
 30
0
 70
128
  0
VERTEX
  8
23 園路・他敷地道
 10
70.391323
 20
-54.361882
  0
VERTEX
  8
23 園路・他敷地道
 10
69.979976
 20
-49.427958
  0
VERTEX
  8
23 園路・他敷地道
 10
70.183927
 20
-48.571674
  0
VERTEX
  8
23 園路・他敷地道
 10
71.844129
 20
-50.303879
  0
VERTEX
  8
23 園路・他敷地道
 10
72.724357
 20
-50.876113
  0
VERTEX
  8
23 園路・他敷地道
 10
72.926068
 20
-54.205646
  0
SEQEND
  0
POLYLINE
  8
23 園路・他敷地道
  6
AIGENLINE001
 40
0.035278
 41
0.035278
 66
1
 10
0
 20
0
 30
0
 70
128
  0
VERTEX
  8
23 園路・他敷地道
 10
68.371107
 20
-41.950847
  0
VERTEX
  8
23 園路・他敷地道
 10
68.767984
 20
-44.332974
  0
VERTEX
  8
23 園路・他敷地道
 10
69.086658
 20
-46.164226
  0
VERTEX
  8
23 園路・他敷地道
 10
69.911935
 20
-48.190988
  0
VERTEX
  8
23 園路・他敷地道
 10
69.630297
 20
-49.373697
  0
VERTEX
  8
23 園路・他敷地道
 10
69.623751
 20
-49.401086
  0
VERTEX
  8
23 園路・他敷地道
 10
70.038716
 20
-54.381003
  0
SEQEND
  0
POLYLINE
  8
23 園路・他敷地道
  6
AIGENLINE001
 40
0.035278
 41
0.035278
 66
1
 10
0
 20
0
 30
0
 70
128
  0
VERTEX
  8
23 園路・他敷地道
 10
68.326837
 20
-41.243393
  0
VERTEX
  8
23 園路・他敷地道
 10
68.697015
 20
-38.888483
  0
VERTEX
  8
23 園路・他敷地道
 10
69.410154
 20
-36.272433
  0
VERTEX
  8
23 園路・他敷地道
 10
69.431169
 20
-36.236432
 42
-0.000333
  0
VERTEX
  8
23 園路・他敷地道
 10
70.848146
 20
-33.797633
  0
VERTEX
  8
23 園路・他敷地道
 10
72.352284
 20
-31.581217
  0
VERTEX
  8
23 園路・他敷地道
 10
72.379156
 20
-31.556412
  0
VERTEX
  8
23 園路・他敷地道
 10
74.327198
 20
-29.764262
  0
VERTEX
  8
23 園路・他敷地道
 10
75.911435
 20
-28.259263
  0
VERTEX
  8
23 園路・他敷地道
 10
75.938134
 20
-28.242382
 42
-0.000507
  0
VERTEX
  8
23 園路・他敷地道
 10
78.028804
 20
-26.926864
  0
VERTEX
  8
23 園路・他敷地道
 10
78.317505
 20
-26.717917
  0
SEQEND
  0
POLYLINE
  8
23 園路・他敷地道
  6
AIGENLINE001
 40
0.035278
 41
0.035278
 66
1
 10
0
 20
0
 30
0
 70
128
  0
VERTEX
  8
23 園路・他敷地道
 10
78.317505
 20
-36.823996
  0
VERTEX
  8
23 園路・他敷地道
 10
78.105630
 20
-36.690154
  0
VERTEX
  8
23 園路・他敷地道
 10
77.710130
 20
-37.995853
  0
VERTEX
  8
23 園路・他敷地道
 10
77.710130
 20
-38.684015
  0
VERTEX
  8
23 園路・他敷地道
 10
77.533740
 20
-39.565965
  0
VERTEX
  8
23 園路・他敷地道
 10
77.775243
 20
-40.854094
  0
VERTEX
  8
23 園路・他敷地道
 10
78.317505
 20
-40.812236
  0
SEQEND
  0
POLYLINE
  8
23 園路・他敷地道
  6
AIGENLINE001
 40
0.035278
 41
0.035278
 66
1
 10
0
 20
0
 30
0
 70
128
  0
VERTEX
  8
23 園路・他敷地道
 10
78.317505
 20
-29.931178
  0
VERTEX
  8
23 園路・他敷地道
 10
78.293733
 20
-29.937035
  0
VERTEX
  8
23 園路・他敷地道
 10
77.420396
 20
-30.701334
  0
VERTEX
  8
23 園路・他敷地道
 10
76.974942
 20
-31.981540
  0
VERTEX
  8
23 園路・他敷地道
 10
76.974942
 20
-32.698469
  0
VERTEX
  8
23 園路・他敷地道
 10
77.766803
 20
-32.846953
  0
VERTEX
  8
23 園路・他敷地道
 10
78.305102
 20
-33.385253
  0
VERTEX
  8
23 園路・他敷地道
 10
78.317505
 20
-33.422115
  0
SEQEND
  0
POLYLINE
  8
23 園路・他敷地道
  6
AIGENLINE001
 40
0.035278
 41
0.035278
 66
1
 10
0
 20
0
 30
0
 70
128
  0
VERTEX
  8
23 園路・他敷地道
 10
78.317505
 20
-35.686935
  0
VERTEX
  8
23 園路・他敷地道
 10
78.261005
 20
-36.177520
  0
VERTEX
  8
23 園路・他敷地道
 10
78.211739
 20
-36.339957
  0
VERTEX
  8
23 園路・他敷地道
 10
78.317505
 20
-36.406793
  0
SEQEND
  0
POLYLINE
  8
23 園路・他敷地道
  6
AIGENLINE001
 40
0.035278
 41
0.035278
 66
1
 10
0
 20
0
 30
0
 70
128
  0
VERTEX
  8
23 園路・他敷地道
 10
78.317505
 20
-41.166050
  0
VERTEX
  8
23 園路・他敷地道
 10
77.782822
 20
-41.207219
  0
VERTEX
  8
23 園路・他敷地道
 10
77.710130
 20
-42.300010
  0
VERTEX
  8
23 園路・他敷地道
 10
77.707202
 20
-42.367707
  0
VERTEX
  8
23 園路・他敷地道
 10
78.317505
 20
-42.611965
  0
SEQEND
  0
POLYLINE
  8
23 園路・他敷地道
  6
AIGENLINE001
 40
0.035278
 41
0.035278
 66
1
 10
0
 20
0
 30
0
 70
128
  0
VERTEX
  8
23 園路・他敷地道
 10
78.317505
 20
-42.991617
  0
VERTEX
  8
23 園路・他敷地道
 10
77.691699
 20
-42.741502
  0
VERTEX
  8
23 園路・他敷地道
 10
77.621935
 20
-44.416690
  0
VERTEX
  8
23 園路・他敷地道
 10
77.886520
 20
-45.386835
  0
VERTEX
  8
23 園路・他敷地道
 10
78.317505
 20
-46.105314
  0
SEQEND
  0
POLYLINE
  8
23 園路・他敷地道
  6
AIGENLINE001
 40
0.035278
 41
0.035278
 66
1
 10
0
 20
0
 30
0
 70
128
  0
VERTEX
  8
23 園路・他敷地道
 10
78.317505
 20
-27.494791
  0
VERTEX
  8
23 園路・他敷地道
 10
76.303144
 20
-28.762939
  0
VERTEX
  8
23 園路・他敷地道
 10
75.929005
 20
-29.118475
  0
VERTEX
  8
23 園路・他敷地道
 10
77.245040
 20
-30.385934
  0
VERTEX
  8
23 園路・他敷地道
 10
78.125611
 20
-29.615605
  0
VERTEX
  8
23 園路・他敷地道
 10
78.166953
 20
-29.604926
  0
VERTEX
  8
23 園路・他敷地道
 10
78.317505
 20
-29.567374
  0
SEQEND
  0
POLYLINE
  8
23 園路・他敷地道
  6
AIGENLINE001
 40
0.035278
 41
0.035278
 66
1
 10
0
 20
0
 30
0
 70
129
  0
VERTEX
  8
23 園路・他敷地道
 10
74.760766
 20
-30.227975
  0
VERTEX
  8
23 園路・他敷地道
 10
75.672688
 20
-29.361700
  0
VERTEX
  8
23 園路・他敷地道
 10
77.029031
 20
-30.667744
  0
VERTEX
  8
23 園路・他敷地道
 10
77.075195
 20
-30.619857
  0
VERTEX
  8
23 園路・他敷地道
 10
76.622162
 20
-31.921939
  0
VERTEX
  8
23 園路・他敷地道
 10
76.622162
 20
-32.663328
  0
VERTEX
  8
23 園路・他敷地道
 10
75.614121
 20
-32.716211
 42
0.014468
  0
VERTEX
  8
23 園路・他敷地道
 10
75.333274
 20
-32.668867
 42
0.002044
  0
VERTEX
  8
23 園路・他敷地道
 10
74.211442
 20
-32.488144
  0
VERTEX
  8
23 園路・他敷地道
 10
73.023048
 20
-31.826854
  0
SEQEND
  0
POLYLINE
  8
23 園路・他敷地道
  6
AIGENLINE001
 40
0.035278
 41
0.035278
 66
1
 10
0
 20
0
 30
0
 70
128
  0
VERTEX
  8
23 園路・他敷地道
 10
78.317505
 20
-48.183926
  0
VERTEX
  8
23 園路・他敷地道
 10
77.092765
 20
-47.503515
  0
VERTEX
  8
23 園路・他敷地道
 10
76.475400
 20
-46.797955
  0
VERTEX
  8
23 園路・他敷地道
 10
76.210815
 20
-46.180590
  0
VERTEX
  8
23 園路・他敷地道
 10
76.299010
 20
-40.447915
  0
VERTEX
  8
23 園路・他敷地道
 10
76.828180
 20
-38.948600
  0
VERTEX
  8
23 園路・他敷地道
 10
77.344776
 20
-38.018418
  0
VERTEX
  8
23 園路・他敷地道
 10
77.335474
 20
-38.015490
 42
-0.001188
  0
VERTEX
  8
23 園路・他敷地道
 10
77.916837
 20
-36.106378
 42
0.000115
  0
VERTEX
  8
23 園路・他敷地道
 10
78.148005
 20
-34.028628
  0
VERTEX
  8
23 園路・他敷地道
 10
77.996764
 20
-33.575768
  0
VERTEX
  8
23 園路・他敷地道
 10
77.594547
 20
-33.173550
  0
VERTEX
  8
23 園路・他敷地道
 10
76.728272
 20
-33.011113
  0
VERTEX
  8
23 園路・他敷地道
 10
75.594828
 20
-33.066579
  0
VERTEX
  8
23 園路・他敷地道
 10
74.094308
 20
-32.826799
  0
VERTEX
  8
23 園路・他敷地道
 10
72.773277
 20
-32.091611
  0
VERTEX
  8
23 園路・他敷地道
 10
71.385240
 20
-34.135427
  0
VERTEX
  8
23 園路・他敷地道
 10
70.000992
 20
-36.519448
  0
VERTEX
  8
23 園路・他敷地道
 10
69.467687
 20
-38.473002
  0
VERTEX
  8
23 園路・他敷地道
 10
69.856297
 20
-39.556147
  0
VERTEX
  8
23 園路・他敷地道
 10
70.155161
 20
-40.871320
  0
VERTEX
  8
23 園路・他敷地道
 10
70.095216
 20
-43.148715
  0
VERTEX
  8
23 園路・他敷地道
 10
70.089531
 20
-43.169385
  0
VERTEX
  8
23 園路・他敷地道
 10
69.908662
 20
-43.830159
  0
VERTEX
  8
23 園路・他敷地道
 10
69.513852
 20
-44.916060
  0
VERTEX
  8
23 園路・他敷地道
 10
69.700577
 20
-45.988008
  0
VERTEX
  8
23 園路・他敷地道
 10
70.523271
 20
-48.008397
  0
VERTEX
  8
23 園路・他敷地道
 10
72.251514
 20
-49.811571
  0
VERTEX
  8
23 園路・他敷地道
 10
73.745145
 20
-50.782405
  0
VERTEX
  8
23 園路・他敷地道
 10
75.939857
 20
-51.464711
  0
VERTEX
  8
23 園路・他敷地道
 10
78.317505
 20
-51.974588
  0
SEQEND
  0
POLYLINE
  8
23 園路・他敷地道
  6
AIGENLINE001
 40
0.035278
 41
0.035278
 66
1
 10
0
 20
0
 30
0
 70
129
  0
VERTEX
  8
23 園路・他敷地道
 10
69.308868
 20
-39.072969
  0
VERTEX
  8
23 園路・他敷地道
 10
69.518331
 20
-39.654849
 42
0.002379
  0
VERTEX
  8
23 園路・他敷地道
 10
69.801347
 20
-40.906460
  0
VERTEX
  8
23 園路・他敷地道
 10
69.743641
 20
-43.097382
  0
VERTEX
  8
23 園路・他敷地道
 10
69.572936
 20
-43.723360
 42
0.003816
  0
VERTEX
  8
23 園路・他敷地道
 10
69.392584
 20
-44.217735
  0
VERTEX
  8
23 園路・他敷地道
 10
68.934383
 20
-41.468703
  0
SEQEND
  0
POLYLINE
  8
23 園路・他敷地道
  6
AIGENLINE001
 40
0.035278
 41
0.035278
 66
1
 10
0
 20
0
 30
0
 70
128
  0
VERTEX
  8
23 園路・他敷地道
 10
78.317505
 20
-76.124687
  0
VERTEX
  8
23 園路・他敷地道
 10
69.449084
 20
-77.048840
  0
VERTEX
  8
23 園路・他敷地道
 10
69.860775
 20
-80.576640
  0
VERTEX
  8
23 園路・他敷地道
 10
71.051408
 20
-80.488445
  0
VERTEX
  8
23 園路・他敷地道
 10
71.271895
 20
-83.531173
  0
VERTEX
  8
23 園路・他敷地道
 10
66.979624
 20
-83.986962
  0
VERTEX
  8
23 園路・他敷地道
 10
67.479510
 20
-89.704823
  0
VERTEX
  8
23 園路・他敷地道
 10
74.623305
 20
-89.131555
  0
VERTEX
  8
23 園路・他敷地道
 10
74.505655
 20
-87.867542
  0
VERTEX
  8
23 園路・他敷地道
 10
77.445545
 20
-87.588143
  0
VERTEX
  8
23 園路・他敷地道
 10
77.710130
 20
-88.866970
  0
VERTEX
  8
23 園路・他敷地道
 10
78.317505
 20
-88.817016
  0
SEQEND
  0
POLYLINE
  8
23 園路・他敷地道
  6
AIGENLINE001
 40
0.035278
 41
0.035278
 66
1
 10
0
 20
0
 30
0
 70
128
  0
VERTEX
  8
23 園路・他敷地道
 10
77.833121
 20
-107.312300
  0
VERTEX
  8
23 園路・他敷地道
 10
78.317505
 20
-107.260106
  0
SEQEND
  0
POLYLINE
  8
23 園路・他敷地道
  6
AIGENLINE001
 40
0.035278
 41
0.035278
 66
1
 10
0
 20
0
 30
0
 70
128
  0
VERTEX
  8
23 園路・他敷地道
 10
78.317505
 20
-89.620589
  0
VERTEX
  8
23 園路・他敷地道
 10
76.900528
 20
-89.757705
  0
VERTEX
  8
23 園路・他敷地道
 10
76.330878
 20
-90.213494
  0
VERTEX
  8
23 園路・他敷地道
 10
76.032186
 20
-91.309041
  0
VERTEX
  8
23 園路・他敷地道
 10
76.205648
 20
-94.171589
  0
VERTEX
  8
23 園路・他敷地道
 10
75.535917
 20
-95.139150
  0
VERTEX
  8
23 園路・他敷地道
 10
61.453656
 20
-96.201797
  0
VERTEX
  8
23 園路・他敷地道
 10
63.458025
 20
-94.408441
  0
VERTEX
  8
23 園路・他敷地道
 10
62.386594
 20
-80.302753
  0
VERTEX
  8
23 園路・他敷地道
 10
59.761759
 20
-78.494584
  0
VERTEX
  8
23 園路・他敷地道
 10
60.431145
 20
-73.977346
  0
VERTEX
  8
23 園路・他敷地道
 10
70.104690
 20
-73.067490
  0
VERTEX
  8
23 園路・他敷地道
 10
70.213555
 20
-75.410687
  0
VERTEX
  8
23 園路・他敷地道
 10
70.565991
 20
-75.394150
  0
VERTEX
  8
23 園路・他敷地道
 10
70.439900
 20
-72.681465
  0
VERTEX
  8
23 園路・他敷地道
 10
70.255930
 20
-72.698863
  0
VERTEX
  8
23 園路・他敷地道
 10
61.095708
 20
-73.560659
  0
VERTEX
  8
23 園路・他敷地道
 10
61.039897
 20
-71.834828
  0
VERTEX
  8
23 園路・他敷地道
 10
60.362587
 20
-70.295549
  0
VERTEX
  8
23 園路・他敷地道
 10
59.314066
 20
-69.431858
  0
VERTEX
  8
23 園路・他敷地道
 10
57.824914
 20
-68.716996
 42
0.001591
  0
VERTEX
  8
23 園路・他敷地道
 10
56.393123
 20
-68.238470
  0
VERTEX
  8
23 園路・他敷地道
 10
56.366079
 20
-68.229340
  0
VERTEX
  8
23 園路・他敷地道
 10
56.337485
 20
-68.229340
  0
VERTEX
  8
23 園路・他敷地道
 10
54.609586
 20
-68.229340
  0
VERTEX
  8
23 園路・他敷地道
 10
53.235501
 20
-68.587805
 42
0.001279
  0
VERTEX
  8
23 園路・他敷地道
 10
51.982340
 20
-69.063920
 42
0.005393
  0
VERTEX
  8
23 園路・他敷地道
 10
51.323445
 20
-69.488374
 42
0.000495
  0
VERTEX
  8
23 園路・他敷地道
 10
50.773104
 20
-69.845617
  0
VERTEX
  8
23 園路・他敷地道
 10
50.748643
 20
-69.861292
  0
VERTEX
  8
23 園路・他敷地道
 10
50.053074
 20
-70.746343
  0
VERTEX
  8
23 園路・他敷地道
 10
49.945414
 20
-71.662227
  0
VERTEX
  8
23 園路・他敷地道
 10
48.737212
 20
-68.979859
  0
VERTEX
  8
23 園路・他敷地道
 10
48.415438
 20
-69.124898
  0
VERTEX
  8
23 園路・他敷地道
 10
49.876340
 20
-72.367787
  0
VERTEX
  8
23 園路・他敷地道
 10
50.695588
 20
-77.020590
 42
0.006003
  0
VERTEX
  8
23 園路・他敷地道
 10
50.971316
 20
-77.691866
 42
0.000694
  0
VERTEX
  8
23 園路・他敷地道
 10
51.294350
 20
-78.469090
  0
VERTEX
  8
23 園路・他敷地道
 10
51.323289
 20
-78.537992
  0
VERTEX
  8
23 園路・他敷地道
 10
52.745433
 20
-79.094551
 42
0.000340
  0
VERTEX
  8
23 園路・他敷地道
 10
55.496359
 20
-79.932575
  0
VERTEX
  8
23 園路・他敷地道
 10
56.788967
 20
-79.808896
  0
VERTEX
  8
23 園路・他敷地道
 10
59.547128
 20
-78.775016
  0
VERTEX
  8
23 園路・他敷地道
 10
62.047594
 20
-80.497747
  0
VERTEX
  8
23 園路・他敷地道
 10
62.495459
 20
-86.394582
  0
VERTEX
  8
23 園路・他敷地道
 10
61.533583
 20
-86.630056
  0
VERTEX
  8
23 園路・他敷地道
 10
61.480528
 20
-86.596466
  0
VERTEX
  8
23 園路・他敷地道
 10
61.445043
 20
-86.651760
  0
VERTEX
  8
23 園路・他敷地道
 10
57.177576
 20
-87.696147
  0
VERTEX
  8
23 園路・他敷地道
 10
57.261293
 20
-88.038936
  0
VERTEX
  8
23 園路・他敷地道
 10
61.169778
 20
-87.082572
  0
VERTEX
  8
23 園路・他敷地道
 10
56.894388
 20
-93.769889
  0
VERTEX
  8
23 園路・他敷地道
 10
57.191701
 20
-93.959715
  0
VERTEX
  8
23 園路・他敷地道
 10
58.113270
 20
-92.517933
  0
VERTEX
  8
23 園路・他敷地道
 10
59.593637
 20
-92.627488
 42
0.000123
  0
VERTEX
  8
23 園路・他敷地道
 10
61.547019
 20
-93.317200
 42
0.000108
  0
VERTEX
  8
23 園路・他敷地道
 10
62.993623
 20
-94.350391
  0
VERTEX
  8
23 園路・他敷地道
 10
60.923452
 20
-96.202830
  0
VERTEX
  8
23 園路・他敷地道
 10
60.956181
 20
-96.239349
  0
VERTEX
  8
23 園路・他敷地道
 10
56.964324
 20
-96.540452
  0
VERTEX
  8
23 園路・他敷地道
 10
57.004115
 20
-97.068416
  0
VERTEX
  8
23 園路・他敷地道
 10
75.827374
 20
-95.647822
  0
VERTEX
  8
23 園路・他敷地道
 10
76.686242
 20
-94.406719
  0
VERTEX
  8
23 園路・他敷地道
 10
78.317505
 20
-94.274082
  0
SEQEND
  0
POLYLINE
  8
23 園路・他敷地道
  6
AIGENLINE001
 40
0.035278
 41
0.035278
 66
1
 10
0
 20
0
 30
0
 70
128
  0
VERTEX
  8
23 園路・他敷地道
 10
78.317505
 20
-77.207832
  0
VERTEX
  8
23 園路・他敷地道
 10
77.577838
 20
-77.313425
  0
VERTEX
  8
23 園路・他敷地道
 10
77.886520
 20
-79.915178
  0
VERTEX
  8
23 園路・他敷地道
 10
78.317505
 20
-79.872114
  0
SEQEND
  0
POLYLINE
  8
23 園路・他敷地道
  6
AIGENLINE001
 40
0.035278
 41
0.035278
 66
1
 10
0
 20
0
 30
0
 70
128
  0
VERTEX
  8
23 園路・他敷地道
 10
77.881008
 20
-108.016826
  0
VERTEX
  8
23 園路・他敷地道
 10
78.317505
 20
-107.969800
  0
SEQEND
  0
POLYLINE
  8
23 園路・他敷地道
  6
AIGENLINE001
 40
0.035278
 41
0.035278
 66
1
 10
0
 20
0
 30
0
 70
129
  0
VERTEX
  8
23 園路・他敷地道
 10
56.708868
 20
-79.462317
  0
VERTEX
  8
23 園路・他敷地道
 10
55.532361
 20
-79.574628
  0
VERTEX
  8
23 園路・他敷地道
 10
52.861189
 20
-78.761408
 42
0.001833
  0
VERTEX
  8
23 園路・他敷地道
 10
51.591319
 20
-78.264105
  0
VERTEX
  8
23 園路・他敷地道
 10
51.032176
 20
-76.922232
 42
0.003657
  0
VERTEX
  8
23 園路・他敷地道
 10
50.838518
 20
-75.805901
 42
0.000558
  0
VERTEX
  8
23 園路・他敷地道
 10
50.224296
 20
-72.310426
  0
VERTEX
  8
23 園路・他敷地道
 10
50.392074
 20
-70.886214
  0
VERTEX
  8
23 園路・他敷地道
 10
50.990146
 20
-70.125188
  0
VERTEX
  8
23 園路・他敷地道
 10
52.140815
 20
-69.377081
 42
0.015111
  0
VERTEX
  8
23 園路・他敷地道
 10
52.408264
 20
-69.277910
 42
0.002039
  0
VERTEX
  8
23 園路・他敷地道
 10
53.342816
 20
-68.923359
  0
VERTEX
  8
23 園路・他敷地道
 10
53.342644
 20
-68.923359
 42
0.001725
  0
VERTEX
  8
23 園路・他敷地道
 10
54.655062
 20
-68.582120
  0
VERTEX
  8
23 園路・他敷地道
 10
56.308718
 20
-68.582120
  0
VERTEX
  8
23 園路・他敷地道
 10
57.692621
 20
-69.043249
 42
0.003272
  0
VERTEX
  8
23 園路・他敷地道
 10
59.122690
 20
-69.731239
  0
VERTEX
  8
23 園路・他敷地道
 10
60.073370
 20
-70.514314
  0
VERTEX
  8
23 園路・他敷地道
 10
60.689529
 20
-71.914410
  0
VERTEX
  8
23 園路・他敷地道
 10
60.743789
 20
-73.593904
  0
VERTEX
  8
23 園路・他敷地道
 10
60.122463
 20
-73.652471
  0
VERTEX
  8
23 園路・他敷地道
 10
59.412079
 20
-78.448763
  0
SEQEND
  0
POLYLINE
  8
23 園路・他敷地道
  6
AIGENLINE001
 40
0.035278
 41
0.035278
 66
1
 10
0
 20
0
 30
0
 70
129
  0
VERTEX
  8
23 園路・他敷地道
 10
59.666674
 20
-92.279531
  0
VERTEX
  8
23 園路・他敷地道
 10
58.329279
 20
-92.180312
  0
VERTEX
  8
23 園路・他敷地道
 10
61.666220
 20
-86.960959
  0
VERTEX
  8
23 園路・他敷地道
 10
62.522503
 20
-86.751151
  0
VERTEX
  8
23 園路・他敷地道
 10
63.070966
 20
-93.972462
  0
VERTEX
  8
23 園路・他敷地道
 10
61.711351
 20
-93.001283
  0
SEQEND
  0
POLYLINE
  8
23 園路・他敷地道
  6
AIGENLINE001
 40
0.035278
 41
0.035278
 66
1
 10
0
 20
0
 30
0
 70
128
  0
VERTEX
  8
23 園路・他敷地道
 10
78.317505
 20
-90.152171
  0
VERTEX
  8
23 園路・他敷地道
 10
77.108268
 20
-90.269305
  0
VERTEX
  8
23 園路・他敷地道
 10
76.796141
 20
-90.519076
  0
VERTEX
  8
23 園路・他敷地道
 10
76.565662
 20
-91.363819
  0
VERTEX
  8
23 園路・他敷地道
 10
76.728272
 20
-94.049288
  0
VERTEX
  8
23 園路・他敷地道
 10
78.317505
 20
-93.920096
  0
SEQEND
  0
POLYLINE
  8
23 園路・他敷地道
  6
AIGENLINE001
 40
0.035278
 41
0.035278
 66
1
 10
0
 20
0
 30
0
 70
128
  0
VERTEX
  8
23 園路・他敷地道
 10
53.393115
 20
-105.267450
  0
VERTEX
  8
23 園路・他敷地道
 10
53.014841
 20
-99.521167
  0
VERTEX
  8
23 園路・他敷地道
 10
52.486877
 20
-99.555963
  0
VERTEX
  8
23 園路・他敷地道
 10
52.865668
 20
-105.312582
  0
SEQEND
  0
POLYLINE
  8
23 園路・他敷地道
  6
AIGENLINE001
 40
0.035278
 41
0.035278
 66
1
 10
0
 20
0
 30
0
 70
128
  0
VERTEX
  8
23 園路・他敷地道
 10
-64.630829
 20
-9.697833
  0
VERTEX
  8
23 園路・他敷地道
 10
-64.387345
 20
-9.833570
  0
VERTEX
  8
23 園路・他敷地道
 10
-64.373048
 20
-9.697833
  0
SEQEND
  0
POLYLINE
  8
23 園路・他敷地道
  6
AIGENLINE001
 40
0.035278
 41
0.035278
 66
1
 10
0
 20
0
 30
0
 70
128
  0
VERTEX
  8
23 園路・他敷地道
 10
-61.392850
 20
-9.697833
  0
VERTEX
  8
23 園路・他敷地道
 10
-58.297584
 20
-9.818756
  0
VERTEX
  8
23 園路・他敷地道
 10
-58.354945
 20
-10.393402
  0
VERTEX
  8
23 園路・他敷地道
 10
-57.828273
 20
-10.445940
  0
VERTEX
  8
23 園路・他敷地道
 10
-57.753514
 20
-9.697833
  0
SEQEND
  0
POLYLINE
  8
23 園路・他敷地道
  6
AIGENLINE001
 40
0.035278
 41
0.035278
 66
1
 10
0
 20
0
 30
0
 70
128
  0
VERTEX
  8
23 園路・他敷地道
 10
-65.717850
 20
-9.697833
  0
VERTEX
  8
23 園路・他敷地道
 10
-64.488718
 20
-10.382894
  0
VERTEX
  8
23 園路・他敷地道
 10
-63.006112
 20
-12.560380
  0
VERTEX
  8
23 園路・他敷地道
 10
-62.568754
 20
-12.262722
  0
VERTEX
  8
23 園路・他敷地道
 10
-63.936552
 20
-10.253530
  0
VERTEX
  8
23 園路・他敷地道
 10
-63.899861
 20
-10.257492
  0
VERTEX
  8
23 園路・他敷地道
 10
-63.840950
 20
-9.697833
  0
SEQEND
  0
POLYLINE
  8
25 分離帯等
 40
0.035278
 41
0.035278
 66
1
 10
0
 20
0
 30
0
 70
1
  0
VERTEX
  8
25 分離帯等
 10
41.676444
 20
-143.869816
 42
0.392213
  0
VERTEX
  8
25 分離帯等
 10
41.629246
 20
-143.927867
  0
VERTEX
  8
25 分離帯等
 10
43.249657
 20
-159.787291
  0
VERTEX
  8
25 分離帯等
 10
43.356111
 20
-159.787291
  0
VERTEX
  8
25 分離帯等
 10
41.734494
 20
-143.917187
 42
0.393063
  0
SEQEND
  0
HATCH
  8
25 分離帯等
 62
255
 10
0.0
 20
0.0
 30
0.0
 210
0.0
 220
0.0
 230
1.0
  2
SOLID
 70
     1
 71
     1
 91
     1
 92
     2
 72
     1
 73
     1
 93
     5
 10
41.676444
 20
-143.869816
 42
0.392213
 10
41.629246
 20
-143.927867
 42
0.000000
 10
43.249657
 20
-159.787291
 42
0.000000
 10
43.356111
 20
-159.787291
 42
0.000000
 10
41.734494
 20
-143.917187
 42
0.393063
 97
     0
 75
     0
 76
     1
 98
     1
 10
0.0
 20
0.0
  0
POLYLINE
  8
25 分離帯等
 40
0.035278
 41
0.035278
 66
1
 10
0
 20
0
 30
0
 70
1
  0
VERTEX
  8
25 分離帯等
 10
40.450327
 20
-130.252646
 42
0.393796
  0
VERTEX
  8
25 分離帯等
 10
40.403129
 20
-130.310696
  0
VERTEX
  8
25 分離帯等
 10
41.319185
 20
-139.152245
 42
0.394422
  0
VERTEX
  8
25 分離帯等
 10
41.377235
 20
-139.199271
 42
0.394364
  0
VERTEX
  8
25 分離帯等
 10
41.424434
 20
-139.141221
  0
VERTEX
  8
25 分離帯等
 10
40.508377
 20
-130.299672
 42
0.393631
  0
SEQEND
  0
HATCH
  8
25 分離帯等
 62
255
 10
0.0
 20
0.0
 30
0.0
 210
0.0
 220
0.0
 230
1.0
  2
SOLID
 70
     1
 71
     1
 91
     1
 92
     2
 72
     1
 73
     1
 93
     6
 10
40.450327
 20
-130.252646
 42
0.393796
 10
40.403129
 20
-130.310696
 42
0.000000
 10
41.319185
 20
-139.152245
 42
0.394422
 10
41.377235
 20
-139.199271
 42
0.394364
 10
41.424434
 20
-139.141221
 42
0.000000
 10
40.508377
 20
-130.299672
 42
0.393631
 97
     0
 75
     0
 76
     1
 98
     1
 10
0.0
 20
0.0
  0
POLYLINE
  8
25 分離帯等
 40
0.035278
 41
0.035278
 66
1
 10
0
 20
0
 30
0
 70
1
  0
VERTEX
  8
25 分離帯等
 10
-6.954744
 20
-24.007988
 42
0.391880
  0
VERTEX
  8
25 分離帯等
 10
-6.904273
 20
-23.952694
  0
VERTEX
  8
25 分離帯等
 10
-7.558845
 20
-9.697833
  0
VERTEX
  8
25 分離帯等
 10
-7.664869
 20
-9.697833
  0
VERTEX
  8
25 分離帯等
 10
-7.010038
 20
-23.957517
 42
0.391981
  0
SEQEND
  0
HATCH
  8
25 分離帯等
 62
255
 10
0.0
 20
0.0
 30
0.0
 210
0.0
 220
0.0
 230
1.0
  2
SOLID
 70
     1
 71
     1
 91
     1
 92
     2
 72
     1
 73
     1
 93
     5
 10
-6.954744
 20
-24.007988
 42
0.391880
 10
-6.904273
 20
-23.952694
 42
0.000000
 10
-7.558845
 20
-9.697833
 42
0.000000
 10
-7.664869
 20
-9.697833
 42
0.000000
 10
-7.010038
 20
-23.957517
 42
0.391981
 97
     0
 75
     0
 76
     1
 98
     1
 10
0.0
 20
0.0
  0
POLYLINE
  8
25 分離帯等
 40
0.035278
 41
0.035278
 66
1
 10
0
 20
0
 30
0
 70
1
  0
VERTEX
  8
25 分離帯等
 10
-6.782833
 20
-26.636268
 42
0.391716
  0
VERTEX
  8
25 分離帯等
 10
-6.833648
 20
-26.691218
  0
VERTEX
  8
25 分離帯等
 10
-6.480868
 20
-35.598913
 42
0.394065
  0
VERTEX
  8
25 分離帯等
 10
-6.425833
 20
-35.649728
 42
0.391609
  0
VERTEX
  8
25 分離帯等
 10
-6.375103
 20
-35.594779
  0
VERTEX
  8
25 分離帯等
 10
-6.727883
 20
-26.687084
 42
0.393761
  0
SEQEND
  0
HATCH
  8
25 分離帯等
 62
255
 10
0.0
 20
0.0
 30
0.0
 210
0.0
 220
0.0
 230
1.0
  2
SOLID
 70
     1
 71
     1
 91
     1
 92
     2
 72
     1
 73
     1
 93
     6
 10
-6.782833
 20
-26.636268
 42
0.391716
 10
-6.833648
 20
-26.691218
 42
0.000000
 10
-6.480868
 20
-35.598913
 42
0.394065
 10
-6.425833
 20
-35.649728
 42
0.391609
 10
-6.375103
 20
-35.594779
 42
0.000000
 10
-6.727883
 20
-26.687084
 42
0.393761
 97
     0
 75
     0
 76
     1
 98
     1
 10
0.0
 20
0.0
  0
POLYLINE
  8
25 分離帯等
 40
0.035278
 41
0.035278
 66
1
 10
0
 20
0
 30
0
 70
1
  0
VERTEX
  8
25 分離帯等
 10
-6.597744
 20
-37.943487
  0
VERTEX
  8
25 分離帯等
 10
-8.596773
 20
-58.345988
 42
0.391728
  0
VERTEX
  8
25 分離帯等
 10
-8.549231
 20
-58.403866
 42
0.391679
  0
VERTEX
  8
25 分離帯等
 10
-8.491353
 20
-58.356323
  0
VERTEX
  8
25 分離帯等
 10
-6.492496
 20
-37.953823
 42
0.393128
  0
VERTEX
  8
25 分離帯等
 10
-6.539952
 20
-37.895945
 42
0.392366
  0
SEQEND
  0
HATCH
  8
25 分離帯等
 62
255
 10
0.0
 20
0.0
 30
0.0
 210
0.0
 220
0.0
 230
1.0
  2
SOLID
 70
     1
 71
     1
 91
     1
 92
     2
 72
     1
 73
     1
 93
     6
 10
-6.597744
 20
-37.943487
 42
0.000000
 10
-8.596773
 20
-58.345988
 42
0.391728
 10
-8.549231
 20
-58.403866
 42
0.391679
 10
-8.491353
 20
-58.356323
 42
0.000000
 10
-6.492496
 20
-37.953823
 42
0.393128
 10
-6.539952
 20
-37.895945
 42
0.392366
 97
     0
 75
     0
 76
     1
 98
     1
 10
0.0
 20
0.0
  0
POLYLINE
  8
25 分離帯等
 40
0.035278
 41
0.035278
 66
1
 10
0
 20
0
 30
0
 70
1
  0
VERTEX
  8
25 分離帯等
 10
-8.950070
 20
-60.992010
  0
VERTEX
  8
25 分離帯等
 10
-10.802165
 20
-80.130325
 42
0.392676
  0
VERTEX
  8
25 分離帯等
 10
-10.754622
 20
-80.188031
 42
0.393751
  0
VERTEX
  8
25 分離帯等
 10
-10.696917
 20
-80.140316
  0
VERTEX
  8
25 分離帯等
 10
-8.844822
 20
-61.002001
 42
0.392676
  0
VERTEX
  8
25 分離帯等
 10
-8.892364
 20
-60.944295
 42
0.393751
  0
SEQEND
  0
HATCH
  8
25 分離帯等
 62
255
 10
0.0
 20
0.0
 30
0.0
 210
0.0
 220
0.0
 230
1.0
  2
SOLID
 70
     1
 71
     1
 91
     1
 92
     2
 72
     1
 73
     1
 93
     6
 10
-8.950070
 20
-60.992010
 42
0.000000
 10
-10.802165
 20
-80.130325
 42
0.392676
 10
-10.754622
 20
-80.188031
 42
0.393751
 10
-10.696917
 20
-80.140316
 42
0.000000
 10
-8.844822
 20
-61.002001
 42
0.392676
 10
-8.892364
 20
-60.944295
 42
0.393751
 97
     0
 75
     0
 76
     1
 98
     1
 10
0.0
 20
0.0
  0
POLYLINE
  8
25 分離帯等
 40
0.035278
 41
0.035278
 66
1
 10
0
 20
0
 30
0
 70
1
  0
VERTEX
  8
25 分離帯等
 10
-10.978641
 20
-82.511590
  0
VERTEX
  8
25 分離帯等
 10
-12.125176
 20
-94.770695
 42
0.392023
  0
VERTEX
  8
25 分離帯等
 10
-12.077375
 20
-94.828401
 42
0.392457
  0
VERTEX
  8
25 分離帯等
 10
-12.019755
 20
-94.780686
  0
VERTEX
  8
25 分離帯等
 10
-10.873220
 20
-82.521581
 42
0.391965
  0
VERTEX
  8
25 分離帯等
 10
-10.921021
 20
-82.463875
 42
0.390631
  0
SEQEND
  0
HATCH
  8
25 分離帯等
 62
255
 10
0.0
 20
0.0
 30
0.0
 210
0.0
 220
0.0
 230
1.0
  2
SOLID
 70
     1
 71
     1
 91
     1
 92
     2
 72
     1
 73
     1
 93
     6
 10
-10.978641
 20
-82.511590
 42
0.000000
 10
-12.125176
 20
-94.770695
 42
0.392023
 10
-12.077375
 20
-94.828401
 42
0.392457
 10
-12.019755
 20
-94.780686
 42
0.000000
 10
-10.873220
 20
-82.521581
 42
0.391965
 10
-10.921021
 20
-82.463875
 42
0.390631
 97
     0
 75
     0
 76
     1
 98
     1
 10
0.0
 20
0.0
  0
POLYLINE
  8
25 分離帯等
 40
0.035278
 41
0.035278
 66
1
 10
0
 20
0
 30
0
 70
1
  0
VERTEX
  8
25 分離帯等
 10
-12.918845
 20
-103.795524
  0
VERTEX
  8
25 分離帯等
 10
-14.565094
 20
-119.552973
 42
0.393320
  0
VERTEX
  8
25 分離帯等
 10
-14.517982
 20
-119.611024
 42
0.394214
  0
VERTEX
  8
25 分離帯等
 10
-14.459846
 20
-119.563998
  0
VERTEX
  8
25 分離帯等
 10
-12.813597
 20
-103.806549
 42
0.392118
  0
VERTEX
  8
25 分離帯等
 10
-12.860709
 20
-103.748326
 42
0.391351
  0
SEQEND
  0
HATCH
  8
25 分離帯等
 62
255
 10
0.0
 20
0.0
 30
0.0
 210
0.0
 220
0.0
 230
1.0
  2
SOLID
 70
     1
 71
     1
 91
     1
 92
     2
 72
     1
 73
     1
 93
     6
 10
-12.918845
 20
-103.795524
 42
0.000000
 10
-14.565094
 20
-119.552973
 42
0.393320
 10
-14.517982
 20
-119.611024
 42
0.394214
 10
-14.459846
 20
-119.563998
 42
0.000000
 10
-12.813597
 20
-103.806549
 42
0.392118
 10
-12.860709
 20
-103.748326
 42
0.391351
 97
     0
 75
     0
 76
     1
 98
     1
 10
0.0
 20
0.0
  0
POLYLINE
  8
25 分離帯等
 40
0.035278
 41
0.035278
 66
1
 10
0
 20
0
 30
0
 70
1
  0
VERTEX
  8
25 分離帯等
 10
-15.094264
 20
-122.786560
  0
VERTEX
  8
25 分離帯等
 10
-16.446645
 20
-135.030851
 42
0.393608
  0
VERTEX
  8
25 分離帯等
 10
-16.399791
 20
-135.089246
 42
0.393852
  0
VERTEX
  8
25 分離帯等
 10
-16.341397
 20
-135.042565
  0
VERTEX
  8
25 分離帯等
 10
-14.989102
 20
-122.798274
 42
0.393191
  0
VERTEX
  8
25 分離帯等
 10
-15.035869
 20
-122.739879
 42
0.393412
  0
SEQEND
  0
HATCH
  8
25 分離帯等
 62
255
 10
0.0
 20
0.0
 30
0.0
 210
0.0
 220
0.0
 230
1.0
  2
SOLID
 70
     1
 71
     1
 91
     1
 92
     2
 72
     1
 73
     1
 93
     6
 10
-15.094264
 20
-122.786560
 42
0.000000
 10
-16.446645
 20
-135.030851
 42
0.393608
 10
-16.399791
 20
-135.089246
 42
0.393852
 10
-16.341397
 20
-135.042565
 42
0.000000
 10
-14.989102
 20
-122.798274
 42
0.393191
 10
-15.035869
 20
-122.739879
 42
0.393412
 97
     0
 75
     0
 76
     1
 98
     1
 10
0.0
 20
0.0
  0
POLYLINE
  8
25 分離帯等
 40
0.035278
 41
0.035278
 66
1
 10
0
 20
0
 30
0
 70
1
  0
VERTEX
  8
25 分離帯等
 10
-16.658003
 20
-139.173088
 42
0.393965
  0
VERTEX
  8
25 分離帯等
 10
-16.711488
 20
-139.225454
  0
VERTEX
  8
25 分離帯等
 10
-16.925258
 20
-159.787291
  0
VERTEX
  8
25 分離帯等
 10
-16.819407
 20
-159.787291
  0
VERTEX
  8
25 分離帯等
 10
-16.605637
 20
-139.226487
 42
0.392857
  0
SEQEND
  0
HATCH
  8
25 分離帯等
 62
255
 10
0.0
 20
0.0
 30
0.0
 210
0.0
 220
0.0
 230
1.0
  2
SOLID
 70
     1
 71
     1
 91
     1
 92
     2
 72
     1
 73
     1
 93
     5
 10
-16.658003
 20
-139.173088
 42
0.393965
 10
-16.711488
 20
-139.225454
 42
0.000000
 10
-16.925258
 20
-159.787291
 42
0.000000
 10
-16.819407
 20
-159.787291
 42
0.000000
 10
-16.605637
 20
-139.226487
 42
0.392857
 97
     0
 75
     0
 76
     1
 98
     1
 10
0.0
 20
0.0
  0
POLYLINE
  8
25 分離帯等
 40
0.035278
 41
0.035278
 66
1
 10
0
 20
0
 30
0
 70
1
  0
VERTEX
  8
25 分離帯等
 10
-15.329824
 20
-139.136398
  0
VERTEX
  8
25 分離帯等
 10
-15.388563
 20
-141.370728
 42
0.393180
  0
VERTEX
  8
25 分離帯等
 10
-15.337059
 20
-141.424989
 42
0.394170
  0
VERTEX
  8
25 分離帯等
 10
-15.282798
 20
-141.373484
  0
VERTEX
  8
25 分離帯等
 10
-15.224059
 20
-139.139154
 42
0.392651
  0
VERTEX
  8
25 分離帯等
 10
-15.275563
 20
-139.084893
 42
0.392611
  0
SEQEND
  0
HATCH
  8
25 分離帯等
 62
255
 10
0.0
 20
0.0
 30
0.0
 210
0.0
 220
0.0
 230
1.0
  2
SOLID
 70
     1
 71
     1
 91
     1
 92
     2
 72
     1
 73
     1
 93
     6
 10
-15.329824
 20
-139.136398
 42
0.000000
 10
-15.388563
 20
-141.370728
 42
0.393180
 10
-15.337059
 20
-141.424989
 42
0.394170
 10
-15.282798
 20
-141.373484
 42
0.000000
 10
-15.224059
 20
-139.139154
 42
0.392651
 10
-15.275563
 20
-139.084893
 42
0.392611
 97
     0
 75
     0
 76
     1
 98
     1
 10
0.0
 20
0.0
  0
POLYLINE
  8
25 分離帯等
 40
0.035278
 41
0.035278
 66
1
 10
0
 20
0
 30
0
 70
1
  0
VERTEX
  8
25 分離帯等
 10
-17.887565
 20
-139.034939
  0
VERTEX
  8
25 分離帯等
 10
-17.887565
 20
-141.269097
 42
0.392249
  0
VERTEX
  8
25 分離帯等
 10
-17.834597
 20
-141.321980
 42
0.392098
  0
VERTEX
  8
25 分離帯等
 10
-17.781628
 20
-141.269097
  0
VERTEX
  8
25 分離帯等
 10
-17.781628
 20
-139.034939
 42
0.393220
  0
VERTEX
  8
25 分離帯等
 10
-17.834597
 20
-138.982056
 42
0.392887
  0
SEQEND
  0
HATCH
  8
25 分離帯等
 62
255
 10
0.0
 20
0.0
 30
0.0
 210
0.0
 220
0.0
 230
1.0
  2
SOLID
 70
     1
 71
     1
 91
     1
 92
     2
 72
     1
 73
     1
 93
     6
 10
-17.887565
 20
-139.034939
 42
0.000000
 10
-17.887565
 20
-141.269097
 42
0.392249
 10
-17.834597
 20
-141.321980
 42
0.392098
 10
-17.781628
 20
-141.269097
 42
0.000000
 10
-17.781628
 20
-139.034939
 42
0.393220
 10
-17.834597
 20
-138.982056
 42
0.392887
 97
     0
 75
     0
 76
     1
 98
     1
 10
0.0
 20
0.0
  0
POLYLINE
  8
25 分離帯等
 40
0.035278
 41
0.035278
 66
1
 10
0
 20
0
 30
0
 70
1
  0
VERTEX
  8
25 分離帯等
 10
-15.564953
 20
-144.487181
  0
VERTEX
  8
25 分離帯等
 10
-15.653148
 20
-149.102777
 42
0.393781
  0
VERTEX
  8
25 分離帯等
 10
-15.601299
 20
-149.156693
 42
0.393754
  0
VERTEX
  8
25 分離帯等
 10
-15.547383
 20
-149.104844
  0
VERTEX
  8
25 分離帯等
 10
-15.459188
 20
-144.489248
 42
0.393781
  0
VERTEX
  8
25 分離帯等
 10
-15.511037
 20
-144.435332
 42
0.392776
  0
SEQEND
  0
HATCH
  8
25 分離帯等
 62
255
 10
0.0
 20
0.0
 30
0.0
 210
0.0
 220
0.0
 230
1.0
  2
SOLID
 70
     1
 71
     1
 91
     1
 92
     2
 72
     1
 73
     1
 93
     6
 10
-15.564953
 20
-144.487181
 42
0.000000
 10
-15.653148
 20
-149.102777
 42
0.393781
 10
-15.601299
 20
-149.156693
 42
0.393754
 10
-15.547383
 20
-149.104844
 42
0.000000
 10
-15.459188
 20
-144.489248
 42
0.393781
 10
-15.511037
 20
-144.435332
 42
0.392776
 97
     0
 75
     0
 76
     1
 98
     1
 10
0.0
 20
0.0
  0
POLYLINE
  8
25 分離帯等
 40
0.035278
 41
0.035278
 66
1
 10
0
 20
0
 30
0
 70
1
  0
VERTEX
  8
25 分離帯等
 10
-18.063955
 20
-144.238444
  0
VERTEX
  8
25 分離帯等
 10
-18.063955
 20
-146.472602
 42
0.392249
  0
VERTEX
  8
25 分離帯等
 10
-18.010987
 20
-146.525485
 42
0.392098
  0
VERTEX
  8
25 分離帯等
 10
-17.958018
 20
-146.472602
  0
VERTEX
  8
25 分離帯等
 10
-17.958018
 20
-144.238444
 42
0.393220
  0
VERTEX
  8
25 分離帯等
 10
-18.010987
 20
-144.185561
 42
0.392887
  0
SEQEND
  0
HATCH
  8
25 分離帯等
 62
255
 10
0.0
 20
0.0
 30
0.0
 210
0.0
 220
0.0
 230
1.0
  2
SOLID
 70
     1
 71
     1
 91
     1
 92
     2
 72
     1
 73
     1
 93
     6
 10
-18.063955
 20
-144.238444
 42
0.000000
 10
-18.063955
 20
-146.472602
 42
0.392249
 10
-18.010987
 20
-146.525485
 42
0.392098
 10
-17.958018
 20
-146.472602
 42
0.000000
 10
-17.958018
 20
-144.238444
 42
0.393220
 10
-18.010987
 20
-144.185561
 42
0.392887
 97
     0
 75
     0
 76
     1
 98
     1
 10
0.0
 20
0.0
  0
POLYLINE
  8
25 分離帯等
 40
0.035278
 41
0.035278
 66
1
 10
0
 20
0
 30
0
 70
1
  0
VERTEX
  8
25 分離帯等
 10
-18.240345
 20
-149.441949
  0
VERTEX
  8
25 分離帯等
 10
-18.240345
 20
-151.676107
 42
0.392249
  0
VERTEX
  8
25 分離帯等
 10
-18.187377
 20
-151.728990
 42
0.392098
  0
VERTEX
  8
25 分離帯等
 10
-18.134408
 20
-151.676107
  0
VERTEX
  8
25 分離帯等
 10
-18.134408
 20
-149.441949
 42
0.393220
  0
VERTEX
  8
25 分離帯等
 10
-18.187377
 20
-149.389066
 42
0.392887
  0
SEQEND
  0
HATCH
  8
25 分離帯等
 62
255
 10
0.0
 20
0.0
 30
0.0
 210
0.0
 220
0.0
 230
1.0
  2
SOLID
 70
     1
 71
     1
 91
     1
 92
     2
 72
     1
 73
     1
 93
     6
 10
-18.240345
 20
-149.441949
 42
0.000000
 10
-18.240345
 20
-151.676107
 42
0.392249
 10
-18.187377
 20
-151.728990
 42
0.392098
 10
-18.134408
 20
-151.676107
 42
0.000000
 10
-18.134408
 20
-149.441949
 42
0.393220
 10
-18.187377
 20
-149.389066
 42
0.392887
 97
     0
 75
     0
 76
     1
 98
     1
 10
0.0
 20
0.0
  0
POLYLINE
  8
25 分離帯等
 40
0.035278
 41
0.035278
 66
1
 10
0
 20
0
 30
0
 70
1
  0
VERTEX
  8
25 分離帯等
 10
-18.372638
 20
-154.469064
  0
VERTEX
  8
25 分離帯等
 10
-18.372638
 20
-156.703222
 42
0.392249
  0
VERTEX
  8
25 分離帯等
 10
-18.319669
 20
-156.756105
 42
0.392098
  0
VERTEX
  8
25 分離帯等
 10
-18.266700
 20
-156.703222
  0
VERTEX
  8
25 分離帯等
 10
-18.266700
 20
-154.469064
 42
0.393220
  0
VERTEX
  8
25 分離帯等
 10
-18.319669
 20
-154.416181
 42
0.392887
  0
SEQEND
  0
HATCH
  8
25 分離帯等
 62
255
 10
0.0
 20
0.0
 30
0.0
 210
0.0
 220
0.0
 230
1.0
  2
SOLID
 70
     1
 71
     1
 91
     1
 92
     2
 72
     1
 73
     1
 93
     6
 10
-18.372638
 20
-154.469064
 42
0.000000
 10
-18.372638
 20
-156.703222
 42
0.392249
 10
-18.319669
 20
-156.756105
 42
0.392098
 10
-18.266700
 20
-156.703222
 42
0.000000
 10
-18.266700
 20
-154.469064
 42
0.393220
 10
-18.319669
 20
-154.416181
 42
0.392887
 97
     0
 75
     0
 76
     1
 98
     1
 10
0.0
 20
0.0
  0
POLYLINE
  8
25 分離帯等
 40
0.035278
 41
0.035278
 66
1
 10
0
 20
0
 30
0
 70
1
  0
VERTEX
  8
25 分離帯等
 10
-18.319669
 20
-158.605444
 42
0.392887
  0
VERTEX
  8
25 分離帯等
 10
-18.372638
 20
-158.658326
  0
VERTEX
  8
25 分離帯等
 10
-18.372638
 20
-159.787291
  0
VERTEX
  8
25 分離帯等
 10
-18.266700
 20
-159.787291
  0
VERTEX
  8
25 分離帯等
 10
-18.266700
 20
-158.658326
 42
0.393220
  0
SEQEND
  0
HATCH
  8
25 分離帯等
 62
255
 10
0.0
 20
0.0
 30
0.0
 210
0.0
 220
0.0
 230
1.0
  2
SOLID
 70
     1
 71
     1
 91
     1
 92
     2
 72
     1
 73
     1
 93
     5
 10
-18.319669
 20
-158.605444
 42
0.392887
 10
-18.372638
 20
-158.658326
 42
0.000000
 10
-18.372638
 20
-159.787291
 42
0.000000
 10
-18.266700
 20
-159.787291
 42
0.000000
 10
-18.266700
 20
-158.658326
 42
0.393220
 97
     0
 75
     0
 76
     1
 98
     1
 10
0.0
 20
0.0
  0
POLYLINE
  8
25 分離帯等
 40
0.035278
 41
0.035278
 66
1
 10
0
 20
0
 30
0
 70
1
  0
VERTEX
  8
25 分離帯等
 10
74.529770
 20
-122.769163
  0
VERTEX
  8
25 分離帯等
 10
62.270665
 20
-124.003893
 42
0.395046
  0
VERTEX
  8
25 分離帯等
 10
62.223295
 20
-124.061771
 42
0.391427
  0
VERTEX
  8
25 分離帯等
 10
62.281173
 20
-124.109141
  0
VERTEX
  8
25 分離帯等
 10
74.540278
 20
-122.874411
 42
0.393006
  0
VERTEX
  8
25 分離帯等
 10
74.587648
 20
-122.816361
 42
0.393541
  0
SEQEND
  0
HATCH
  8
25 分離帯等
 62
255
 10
0.0
 20
0.0
 30
0.0
 210
0.0
 220
0.0
 230
1.0
  2
SOLID
 70
     1
 71
     1
 91
     1
 92
     2
 72
     1
 73
     1
 93
     6
 10
74.529770
 20
-122.769163
 42
0.000000
 10
62.270665
 20
-124.003893
 42
0.395046
 10
62.223295
 20
-124.061771
 42
0.391427
 10
62.281173
 20
-124.109141
 42
0.000000
 10
74.540278
 20
-122.874411
 42
0.393006
 10
74.587648
 20
-122.816361
 42
0.393541
 97
     0
 75
     0
 76
     1
 98
     1
 10
0.0
 20
0.0
  0
POLYLINE
  8
25 分離帯等
 40
0.035278
 41
0.035278
 66
1
 10
0
 20
0
 30
0
 70
1
  0
VERTEX
  8
25 分離帯等
 10
56.802920
 20
-124.532890
  0
VERTEX
  8
25 分離帯等
 10
44.367425
 20
-125.679425
 42
0.393298
  0
VERTEX
  8
25 分離帯等
 10
44.319710
 20
-125.736959
 42
0.393442
  0
VERTEX
  8
25 分離帯等
 10
44.377244
 20
-125.784846
  0
VERTEX
  8
25 分離帯等
 10
56.812739
 20
-124.638311
 42
0.390779
  0
VERTEX
  8
25 分離帯等
 10
56.860626
 20
-124.580777
 42
0.391559
  0
SEQEND
  0
HATCH
  8
25 分離帯等
 62
255
 10
0.0
 20
0.0
 30
0.0
 210
0.0
 220
0.0
 230
1.0
  2
SOLID
 70
     1
 71
     1
 91
     1
 92
     2
 72
     1
 73
     1
 93
     6
 10
56.802920
 20
-124.532890
 42
0.000000
 10
44.367425
 20
-125.679425
 42
0.393298
 10
44.319710
 20
-125.736959
 42
0.393442
 10
44.377244
 20
-125.784846
 42
0.000000
 10
56.812739
 20
-124.638311
 42
0.390779
 10
56.860626
 20
-124.580777
 42
0.391559
 97
     0
 75
     0
 76
     1
 98
     1
 10
0.0
 20
0.0
  0
POLYLINE
  8
25 分離帯等
 40
0.035278
 41
0.035278
 66
1
 10
0
 20
0
 30
0
 70
1
  0
VERTEX
  8
25 分離帯等
 10
26.427149
 20
-115.557154
 42
0.394332
  0
VERTEX
  8
25 分離帯等
 10
26.436107
 20
-115.631397
  0
VERTEX
  8
25 分離帯等
 10
37.813262
 20
-124.539092
 42
0.393886
  0
VERTEX
  8
25 分離帯等
 10
37.887676
 20
-124.529962
 42
0.392801
  0
VERTEX
  8
25 分離帯等
 10
37.878547
 20
-124.455720
  0
VERTEX
  8
25 分離帯等
 10
26.501392
 20
-115.548025
 42
0.394374
  0
SEQEND
  0
HATCH
  8
25 分離帯等
 62
255
 10
0.0
 20
0.0
 30
0.0
 210
0.0
 220
0.0
 230
1.0
  2
SOLID
 70
     1
 71
     1
 91
     1
 92
     2
 72
     1
 73
     1
 93
     6
 10
26.427149
 20
-115.557154
 42
0.394332
 10
26.436107
 20
-115.631397
 42
0.000000
 10
37.813262
 20
-124.539092
 42
0.393886
 10
37.887676
 20
-124.529962
 42
0.392801
 10
37.878547
 20
-124.455720
 42
0.000000
 10
26.501392
 20
-115.548025
 42
0.394374
 97
     0
 75
     0
 76
     1
 98
     1
 10
0.0
 20
0.0
  0
POLYLINE
  8
25 分離帯等
 40
0.035278
 41
0.035278
 66
1
 10
0
 20
0
 30
0
 70
1
  0
VERTEX
  8
25 分離帯等
 10
14.248316
 20
-108.338945
  0
VERTEX
  8
25 分離帯等
 10
14.244871
 20
-108.357721
 42
0.301645
  0
VERTEX
  8
25 分離帯等
 10
14.278977
 20
-108.407158
  0
VERTEX
  8
25 分離帯等
 10
19.835262
 20
-110.523838
 42
0.002338
  0
VERTEX
  8
25 分離帯等
 10
21.231411
 20
-111.573145
 42
0.000168
  0
VERTEX
  8
25 分離帯等
 10
22.997363
 20
-112.898041
 42
0.391853
  0
VERTEX
  8
25 分離帯等
 10
23.071433
 20
-112.887361
 42
0.392639
  0
VERTEX
  8
25 分離帯等
 10
23.060925
 20
-112.813291
  0
VERTEX
  8
25 分離帯等
 10
19.885905
 20
-110.432026
 42
0.001171
  0
VERTEX
  8
25 分離帯等
 10
16.706514
 20
-109.218892
  0
VERTEX
  8
25 分離帯等
 10
14.316701
 20
-108.308283
 42
0.392197
  0
SEQEND
  0
HATCH
  8
25 分離帯等
 62
255
 10
0.0
 20
0.0
 30
0.0
 210
0.0
 220
0.0
 230
1.0
  2
SOLID
 70
     1
 71
     1
 91
     1
 92
     2
 72
     1
 73
     1
 93
    11
 10
14.248316
 20
-108.338945
 42
0.000000
 10
14.244871
 20
-108.357721
 42
0.301645
 10
14.278977
 20
-108.407158
 42
0.000000
 10
19.835262
 20
-110.523838
 42
0.002338
 10
21.231411
 20
-111.573145
 42
0.000168
 10
22.997363
 20
-112.898041
 42
0.391853
 10
23.071433
 20
-112.887361
 42
0.392639
 10
23.060925
 20
-112.813291
 42
0.000000
 10
19.885905
 20
-110.432026
 42
0.001171
 10
16.706514
 20
-109.218892
 42
0.000000
 10
14.316701
 20
-108.308283
 42
0.392197
 97
     0
 75
     0
 76
     1
 98
     1
 10
0.0
 20
0.0
  0
POLYLINE
  8
25 分離帯等
 40
0.035278
 41
0.035278
 66
1
 10
0
 20
0
 30
0
 70
1
  0
VERTEX
  8
25 分離帯等
 10
-9.035509
 20
-100.314233
 42
0.393957
  0
VERTEX
  8
25 分離帯等
 10
-9.003297
 20
-100.381758
  0
VERTEX
  8
25 分離帯等
 10
11.634333
 20
-107.701943
 42
0.393687
  0
VERTEX
  8
25 分離帯等
 10
11.701857
 20
-107.669903
 42
0.393940
  0
VERTEX
  8
25 分離帯等
 10
11.669645
 20
-107.602379
  0
VERTEX
  8
25 分離帯等
 10
-8.967985
 20
-100.282194
 42
0.393684
  0
SEQEND
  0
HATCH
  8
25 分離帯等
 62
255
 10
0.0
 20
0.0
 30
0.0
 210
0.0
 220
0.0
 230
1.0
  2
SOLID
 70
     1
 71
     1
 91
     1
 92
     2
 72
     1
 73
     1
 93
     6
 10
-9.035509
 20
-100.314233
 42
0.393957
 10
-9.003297
 20
-100.381758
 42
0.000000
 10
11.634333
 20
-107.701943
 42
0.393687
 10
11.701857
 20
-107.669903
 42
0.393940
 10
11.669645
 20
-107.602379
 42
0.000000
 10
-8.967985
 20
-100.282194
 42
0.393684
 97
     0
 75
     0
 76
     1
 98
     1
 10
0.0
 20
0.0
  0
POLYLINE
  8
25 分離帯等
 40
0.035278
 41
0.035278
 66
1
 10
0
 20
0
 30
0
 70
1
  0
VERTEX
  8
25 分離帯等
 10
-47.929676
 20
-86.908938
 42
0.391847
  0
VERTEX
  8
25 分離帯等
 10
-47.896947
 20
-86.976290
  0
VERTEX
  8
25 分離帯等
 10
-16.058552
 20
-98.000665
 42
0.393052
  0
VERTEX
  8
25 分離帯等
 10
-15.991200
 20
-97.968108
 42
0.392299
  0
VERTEX
  8
25 分離帯等
 10
-16.023929
 20
-97.900756
  0
VERTEX
  8
25 分離帯等
 10
-47.862324
 20
-86.876381
 42
0.393082
  0
SEQEND
  0
HATCH
  8
25 分離帯等
 62
255
 10
0.0
 20
0.0
 30
0.0
 210
0.0
 220
0.0
 230
1.0
  2
SOLID
 70
     1
 71
     1
 91
     1
 92
     2
 72
     1
 73
     1
 93
     6
 10
-47.929676
 20
-86.908938
 42
0.391847
 10
-47.896947
 20
-86.976290
 42
0.000000
 10
-16.058552
 20
-98.000665
 42
0.393052
 10
-15.991200
 20
-97.968108
 42
0.392299
 10
-16.023929
 20
-97.900756
 42
0.000000
 10
-47.862324
 20
-86.876381
 42
0.393082
 97
     0
 75
     0
 76
     1
 98
     1
 10
0.0
 20
0.0
  0
POLYLINE
  8
25 分離帯等
 40
0.035278
 41
0.035278
 66
1
 10
0
 20
0
 30
0
 70
1
  0
VERTEX
  8
25 分離帯等
 10
-55.326257
 20
-84.121493
 42
0.393630
  0
VERTEX
  8
25 分離帯等
 10
-55.358813
 20
-84.054141
  0
VERTEX
  8
25 分離帯等
 10
-71.687118
 20
-78.364014
  0
VERTEX
  8
25 分離帯等
 10
-71.687118
 20
-78.475980
  0
VERTEX
  8
25 分離帯等
 10
-55.393609
 20
-84.154050
 42
0.393159
  0
SEQEND
  0
HATCH
  8
25 分離帯等
 62
255
 10
0.0
 20
0.0
 30
0.0
 210
0.0
 220
0.0
 230
1.0
  2
SOLID
 70
     1
 71
     1
 91
     1
 92
     2
 72
     1
 73
     1
 93
     5
 10
-55.326257
 20
-84.121493
 42
0.393630
 10
-55.358813
 20
-84.054141
 42
0.000000
 10
-71.687118
 20
-78.364014
 42
0.000000
 10
-71.687118
 20
-78.475980
 42
0.000000
 10
-55.393609
 20
-84.154050
 42
0.393159
 97
     0
 75
     0
 76
     1
 98
     1
 10
0.0
 20
0.0
  0
POLYLINE
  8
25 分離帯等
 40
0.035278
 41
0.035278
 66
1
 10
0
 20
0
 30
0
 70
1
  0
VERTEX
  8
25 分離帯等
 10
-48.902147
 20
-69.279584
  0
VERTEX
  8
25 分離帯等
 10
-50.650457
 20
-81.591744
 42
0.393415
  0
VERTEX
  8
25 分離帯等
 10
-50.605499
 20
-81.651517
 42
0.393415
  0
VERTEX
  8
25 分離帯等
 10
-50.545726
 20
-81.606558
  0
VERTEX
  8
25 分離帯等
 10
-48.797329
 20
-69.294570
 42
0.392871
  0
VERTEX
  8
25 分離帯等
 10
-48.842288
 20
-69.234798
 42
0.393220
  0
SEQEND
  0
HATCH
  8
25 分離帯等
 62
255
 10
0.0
 20
0.0
 30
0.0
 210
0.0
 220
0.0
 230
1.0
  2
SOLID
 70
     1
 71
     1
 91
     1
 92
     2
 72
     1
 73
     1
 93
     6
 10
-48.902147
 20
-69.279584
 42
0.000000
 10
-50.650457
 20
-81.591744
 42
0.393415
 10
-50.605499
 20
-81.651517
 42
0.393415
 10
-50.545726
 20
-81.606558
 42
0.000000
 10
-48.797329
 20
-69.294570
 42
0.392871
 10
-48.842288
 20
-69.234798
 42
0.393220
 97
     0
 75
     0
 76
     1
 98
     1
 10
0.0
 20
0.0
  0
POLYLINE
  8
25 分離帯等
 40
0.035278
 41
0.035278
 66
1
 10
0
 20
0
 30
0
 70
1
  0
VERTEX
  8
25 分離帯等
 10
-46.718115
 20
-51.114687
  0
VERTEX
  8
25 分離帯等
 10
-48.520255
 20
-66.500925
 42
0.392365
  0
VERTEX
  8
25 分離帯等
 10
-48.473832
 20
-66.559664
 42
0.392036
  0
VERTEX
  8
25 分離帯等
 10
-48.415179
 20
-66.513155
  0
VERTEX
  8
25 分離帯等
 10
-46.613038
 20
-51.127089
 42
0.393132
  0
VERTEX
  8
25 分離帯等
 10
-46.659461
 20
-51.068350
 42
0.392988
  0
SEQEND
  0
HATCH
  8
25 分離帯等
 62
255
 10
0.0
 20
0.0
 30
0.0
 210
0.0
 220
0.0
 230
1.0
  2
SOLID
 70
     1
 71
     1
 91
     1
 92
     2
 72
     1
 73
     1
 93
     6
 10
-46.718115
 20
-51.114687
 42
0.000000
 10
-48.520255
 20
-66.500925
 42
0.392365
 10
-48.473832
 20
-66.559664
 42
0.392036
 10
-48.415179
 20
-66.513155
 42
0.000000
 10
-46.613038
 20
-51.127089
 42
0.393132
 10
-46.659461
 20
-51.068350
 42
0.392988
 97
     0
 75
     0
 76
     1
 98
     1
 10
0.0
 20
0.0
  0
POLYLINE
  8
25 分離帯等
 40
0.035278
 41
0.035278
 66
1
 10
0
 20
0
 30
0
 70
1
  0
VERTEX
  8
25 分離帯等
 10
-44.859560
 20
-35.246994
  0
VERTEX
  8
25 分離帯等
 10
-46.320979
 20
-47.723486
 42
0.393158
  0
VERTEX
  8
25 分離帯等
 10
-46.274642
 20
-47.782225
 42
0.393158
  0
VERTEX
  8
25 分離帯等
 10
-46.215903
 20
-47.735888
  0
VERTEX
  8
25 分離帯等
 10
-44.754484
 20
-35.259396
 42
0.393158
  0
VERTEX
  8
25 分離帯等
 10
-44.800821
 20
-35.200657
 42
0.393158
  0
SEQEND
  0
HATCH
  8
25 分離帯等
 62
255
 10
0.0
 20
0.0
 30
0.0
 210
0.0
 220
0.0
 230
1.0
  2
SOLID
 70
     1
 71
     1
 91
     1
 92
     2
 72
     1
 73
     1
 93
     6
 10
-44.859560
 20
-35.246994
 42
0.000000
 10
-46.320979
 20
-47.723486
 42
0.393158
 10
-46.274642
 20
-47.782225
 42
0.393158
 10
-46.215903
 20
-47.735888
 42
0.000000
 10
-44.754484
 20
-35.259396
 42
0.393158
 10
-44.800821
 20
-35.200657
 42
0.393158
 97
     0
 75
     0
 76
     1
 98
     1
 10
0.0
 20
0.0
  0
POLYLINE
  8
25 分離帯等
 40
0.035278
 41
0.035278
 66
1
 10
0
 20
0
 30
0
 70
1
  0
VERTEX
  8
25 分離帯等
 10
-43.285572
 20
-21.809487
  0
VERTEX
  8
25 分離帯等
 10
-44.478530
 20
-31.993253
 42
0.393158
  0
VERTEX
  8
25 分離帯等
 10
-44.432193
 20
-32.051992
 42
0.393158
  0
VERTEX
  8
25 分離帯等
 10
-44.373454
 20
-32.005655
  0
VERTEX
  8
25 分離帯等
 10
-43.180496
 20
-21.821889
 42
0.393054
  0
VERTEX
  8
25 分離帯等
 10
-43.226919
 20
-21.763150
 42
0.392988
  0
SEQEND
  0
HATCH
  8
25 分離帯等
 62
255
 10
0.0
 20
0.0
 30
0.0
 210
0.0
 220
0.0
 230
1.0
  2
SOLID
 70
     1
 71
     1
 91
     1
 92
     2
 72
     1
 73
     1
 93
     6
 10
-43.285572
 20
-21.809487
 42
0.000000
 10
-44.478530
 20
-31.993253
 42
0.393158
 10
-44.432193
 20
-32.051992
 42
0.393158
 10
-44.373454
 20
-32.005655
 42
0.000000
 10
-43.180496
 20
-21.821889
 42
0.393054
 10
-43.226919
 20
-21.763150
 42
0.392988
 97
     0
 75
     0
 76
     1
 98
     1
 10
0.0
 20
0.0
  0
POLYLINE
  8
25 分離帯等
 40
0.035278
 41
0.035278
 66
1
 10
0
 20
0
 30
0
 70
1
  0
VERTEX
  8
25 分離帯等
 10
-42.879996
 20
-18.801899
 42
0.393158
  0
VERTEX
  8
25 分離帯等
 10
-42.821256
 20
-18.755562
  0
VERTEX
  8
25 分離帯等
 10
-41.760419
 20
-9.697833
  0
VERTEX
  8
25 分離帯等
 10
-41.866959
 20
-9.697833
  0
VERTEX
  8
25 分離帯等
 10
-42.926332
 20
-18.743160
 42
0.393144
  0
SEQEND
  0
HATCH
  8
25 分離帯等
 62
255
 10
0.0
 20
0.0
 30
0.0
 210
0.0
 220
0.0
 230
1.0
  2
SOLID
 70
     1
 71
     1
 91
     1
 92
     2
 72
     1
 73
     1
 93
     5
 10
-42.879996
 20
-18.801899
 42
0.393158
 10
-42.821256
 20
-18.755562
 42
0.000000
 10
-41.760419
 20
-9.697833
 42
0.000000
 10
-41.866959
 20
-9.697833
 42
0.000000
 10
-42.926332
 20
-18.743160
 42
0.393144
 97
     0
 75
     0
 76
     1
 98
     1
 10
0.0
 20
0.0
  0
POLYLINE
  8
25 分離帯等
 40
0.035278
 41
0.035278
 66
1
 10
0
 20
0
 30
0
 70
1
  0
VERTEX
  8
25 分離帯等
 10
-51.721028
 20
-149.485874
  0
VERTEX
  8
25 分離帯等
 10
-51.813184
 20
-159.863084
 42
0.392803
  0
VERTEX
  8
25 分離帯等
 10
-51.760646
 20
-159.916483
 42
0.393695
  0
VERTEX
  8
25 分離帯等
 10
-51.707247
 20
-159.864117
  0
VERTEX
  8
25 分離帯等
 10
-51.615262
 20
-149.486908
 42
0.394282
  0
VERTEX
  8
25 分離帯等
 10
-51.667628
 20
-149.433508
 42
0.392219
  0
SEQEND
  0
HATCH
  8
25 分離帯等
 62
255
 10
0.0
 20
0.0
 30
0.0
 210
0.0
 220
0.0
 230
1.0
  2
SOLID
 70
     1
 71
     1
 91
     1
 92
     2
 72
     1
 73
     1
 93
     6
 10
-51.721028
 20
-149.485874
 42
0.000000
 10
-51.813184
 20
-159.863084
 42
0.392803
 10
-51.760646
 20
-159.916483
 42
0.393695
 10
-51.707247
 20
-159.864117
 42
0.000000
 10
-51.615262
 20
-149.486908
 42
0.394282
 10
-51.667628
 20
-149.433508
 42
0.392219
 97
     0
 75
     0
 76
     1
 98
     1
 10
0.0
 20
0.0
  0
POLYLINE
  8
25 分離帯等
 40
0.035278
 41
0.035278
 66
1
 10
0
 20
0
 30
0
 70
1
  0
VERTEX
  8
25 分離帯等
 10
-51.597692
 20
-135.610492
  0
VERTEX
  8
25 分離帯等
 10
-51.700185
 20
-147.133204
 42
0.391299
  0
VERTEX
  8
25 分離帯等
 10
-51.647647
 20
-147.186603
 42
0.391846
  0
VERTEX
  8
25 分離帯等
 10
-51.594247
 20
-147.134065
  0
VERTEX
  8
25 分離帯等
 10
-51.491927
 20
-135.611354
 42
0.392785
  0
VERTEX
  8
25 分離帯等
 10
-51.544293
 20
-135.557954
 42
0.392803
  0
SEQEND
  0
HATCH
  8
25 分離帯等
 62
255
 10
0.0
 20
0.0
 30
0.0
 210
0.0
 220
0.0
 230
1.0
  2
SOLID
 70
     1
 71
     1
 91
     1
 92
     2
 72
     1
 73
     1
 93
     6
 10
-51.597692
 20
-135.610492
 42
0.000000
 10
-51.700185
 20
-147.133204
 42
0.391299
 10
-51.647647
 20
-147.186603
 42
0.391846
 10
-51.594247
 20
-147.134065
 42
0.000000
 10
-51.491927
 20
-135.611354
 42
0.392785
 10
-51.544293
 20
-135.557954
 42
0.392803
 97
     0
 75
     0
 76
     1
 98
     1
 10
0.0
 20
0.0
  0
POLYLINE
  8
25 分離帯等
 40
0.035278
 41
0.035278
 66
1
 10
0
 20
0
 30
0
 70
1
  0
VERTEX
  8
25 分離帯等
 10
-51.478147
 20
-122.145424
  0
VERTEX
  8
25 分離帯等
 10
-51.570648
 20
-132.552090
 42
0.392803
  0
VERTEX
  8
25 分離帯等
 10
-51.518110
 20
-132.605489
 42
0.392965
  0
VERTEX
  8
25 分離帯等
 10
-51.464711
 20
-132.553123
  0
VERTEX
  8
25 分離帯等
 10
-51.372209
 20
-122.146458
 42
0.392803
  0
VERTEX
  8
25 分離帯等
 10
-51.424747
 20
-122.093058
 42
0.392965
  0
SEQEND
  0
HATCH
  8
25 分離帯等
 62
255
 10
0.0
 20
0.0
 30
0.0
 210
0.0
 220
0.0
 230
1.0
  2
SOLID
 70
     1
 71
     1
 91
     1
 92
     2
 72
     1
 73
     1
 93
     6
 10
-51.478147
 20
-122.145424
 42
0.000000
 10
-51.570648
 20
-132.552090
 42
0.392803
 10
-51.518110
 20
-132.605489
 42
0.392965
 10
-51.464711
 20
-132.553123
 42
0.000000
 10
-51.372209
 20
-122.146458
 42
0.392803
 10
-51.424747
 20
-122.093058
 42
0.392965
 97
     0
 75
     0
 76
     1
 98
     1
 10
0.0
 20
0.0
  0
POLYLINE
  8
25 分離帯等
 40
0.035278
 41
0.035278
 66
1
 10
0
 20
0
 30
0
 70
1
  0
VERTEX
  8
25 分離帯等
 10
-51.341720
 20
-106.799150
  0
VERTEX
  8
25 分離帯等
 10
-51.454720
 20
-119.500780
 42
0.392803
  0
VERTEX
  8
25 分離帯等
 10
-51.402182
 20
-119.554179
 42
0.393695
  0
VERTEX
  8
25 分離帯等
 10
-51.348783
 20
-119.501813
  0
VERTEX
  8
25 分離帯等
 10
-51.235955
 20
-106.800183
 42
0.394282
  0
VERTEX
  8
25 分離帯等
 10
-51.288321
 20
-106.746784
 42
0.393918
  0
SEQEND
  0
HATCH
  8
25 分離帯等
 62
255
 10
0.0
 20
0.0
 30
0.0
 210
0.0
 220
0.0
 230
1.0
  2
SOLID
 70
     1
 71
     1
 91
     1
 92
     2
 72
     1
 73
     1
 93
     6
 10
-51.341720
 20
-106.799150
 42
0.000000
 10
-51.454720
 20
-119.500780
 42
0.392803
 10
-51.402182
 20
-119.554179
 42
0.393695
 10
-51.348783
 20
-119.501813
 42
0.000000
 10
-51.235955
 20
-106.800183
 42
0.394282
 10
-51.288321
 20
-106.746784
 42
0.393918
 97
     0
 75
     0
 76
     1
 98
     1
 10
0.0
 20
0.0
  0
POLYLINE
  8
25 分離帯等
 40
0.035278
 41
0.035278
 66
1
 10
0
 20
0
 30
0
 70
1
  0
VERTEX
  8
25 分離帯等
 10
-51.195819
 20
-90.365424
  0
VERTEX
  8
25 分離帯等
 10
-51.317777
 20
-104.094560
 42
0.392803
  0
VERTEX
  8
25 分離帯等
 10
-51.265239
 20
-104.147960
 42
0.393695
  0
VERTEX
  8
25 分離帯等
 10
-51.211839
 20
-104.095594
  0
VERTEX
  8
25 分離帯等
 10
-51.089882
 20
-90.366457
 42
0.392803
  0
VERTEX
  8
25 分離帯等
 10
-51.142420
 20
-90.313058
 42
0.393695
  0
SEQEND
  0
HATCH
  8
25 分離帯等
 62
255
 10
0.0
 20
0.0
 30
0.0
 210
0.0
 220
0.0
 230
1.0
  2
SOLID
 70
     1
 71
     1
 91
     1
 92
     2
 72
     1
 73
     1
 93
     6
 10
-51.195819
 20
-90.365424
 42
0.000000
 10
-51.317777
 20
-104.094560
 42
0.392803
 10
-51.265239
 20
-104.147960
 42
0.393695
 10
-51.211839
 20
-104.095594
 42
0.000000
 10
-51.089882
 20
-90.366457
 42
0.392803
 10
-51.142420
 20
-90.313058
 42
0.393695
 97
     0
 75
     0
 76
     1
 98
     1
 10
0.0
 20
0.0
  0
POLYLINE
  8
26 道路
 40
0.070556
 41
0.070556
 62
252
 66
1
 10
0
 20
0
 30
0
 70
1
  0
VERTEX
  8
26 道路
 10
-16.748523
 20
-23.662615
  0
VERTEX
  8
26 道路
 10
-8.536225
 20
-24.848941
  0
VERTEX
  8
26 道路
 10
-8.756196
 20
-20.030428
  0
VERTEX
  8
26 道路
 10
-15.657282
 20
-18.911454
  0
SEQEND
  0
POLYLINE
  8
26 道路
 40
0.070556
 41
0.070556
 62
252
 66
1
 10
0
 20
0
 30
0
 70
1
  0
VERTEX
  8
26 道路
 10
-5.182920
 20
-28.841488
  0
VERTEX
  8
26 道路
 10
-4.838753
 20
-36.379576
  0
VERTEX
  8
26 道路
 10
-1.212164
 20
-36.548559
  0
VERTEX
  8
26 道路
 10
-1.205533
 20
-36.346503
  0
VERTEX
  8
26 道路
 10
-1.792667
 20
-28.558988
  0
SEQEND
  0
POLYLINE
  8
26 道路
 40
0.070556
 41
0.070556
 62
252
 66
1
 10
0
 20
0
 30
0
 70
1
  0
VERTEX
  8
26 道路
 10
-1.851750
 20
-27.777463
  0
VERTEX
  8
26 道路
 10
-2.285921
 20
-22.020156
  0
VERTEX
  8
26 道路
 10
-5.482043
 20
-22.293353
  0
VERTEX
  8
26 道路
 10
-5.218836
 20
-28.058068
  0
SEQEND
  0
POLYLINE
  8
26 道路
 40
0.070556
 41
0.070556
 62
252
 66
1
 10
0
 20
0
 30
0
 70
1
  0
VERTEX
  8
26 道路
 10
-1.274607
 20
-61.585604
  0
VERTEX
  8
26 道路
 10
3.396197
 20
-62.128899
  0
VERTEX
  8
26 道路
 10
3.550366
 20
-57.642667
  0
VERTEX
  8
26 道路
 10
-1.139386
 20
-57.564463
  0
SEQEND
  0
POLYLINE
  8
26 道路
 40
0.070556
 41
0.070556
 62
252
 66
1
 10
0
 20
0
 30
0
 70
1
  0
VERTEX
  8
26 道路
 10
34.860107
 20
-18.305975
  0
VERTEX
  8
26 道路
 10
35.220122
 20
-21.735761
  0
VERTEX
  8
26 道路
 10
44.826831
 20
-20.638491
  0
VERTEX
  8
26 道路
 10
44.601004
 20
-17.253836
  0
SEQEND
  0
POLYLINE
  8
26 道路
 40
0.070556
 41
0.070556
 62
252
 66
1
 10
0
 20
0
 30
0
 70
1
  0
VERTEX
  8
26 道路
 10
39.793171
 20
-16.757395
  0
VERTEX
  8
26 道路
 10
43.367135
 20
-16.363962
  0
VERTEX
  8
26 道路
 10
43.078262
 20
-12.683027
  0
VERTEX
  8
26 道路
 10
39.286738
 20
-11.476891
  0
SEQEND
  0
POLYLINE
  8
26 道路
 40
0.070556
 41
0.070556
 62
252
 66
1
 10
0
 20
0
 30
0
  0
VERTEX
  8
26 道路
 10
-71.687118
 20
-145.566192
  0
VERTEX
  8
26 道路
 10
-69.366315
 20
-145.816135
  0
VERTEX
  8
26 道路
 10
-69.124295
 20
-132.263906
  0
VERTEX
  8
26 道路
 10
-71.687118
 20
-131.883565
  0
SEQEND
  0
POLYLINE
  8
26 道路
 40
0.070556
 41
0.070556
 62
252
 66
1
 10
0
 20
0
 30
0
 70
1
  0
VERTEX
  8
26 道路
 10
4.470556
 20
-53.123707
  0
VERTEX
  8
26 道路
 10
4.341192
 20
-56.885603
  0
VERTEX
  8
26 道路
 10
12.902136
 20
-56.020706
  0
VERTEX
  8
26 道路
 10
12.729363
 20
-52.420903
  0
SEQEND
  0
POLYLINE
  8
26 道路
 40
0.070556
 41
0.070556
 62
252
 66
1
 10
0
 20
0
 30
0
 70
1
  0
VERTEX
  8
26 道路
 10
12.683027
 20
-51.455237
  0
VERTEX
  8
26 道路
 10
12.482349
 20
-47.275448
  0
VERTEX
  8
26 道路
 10
4.645396
 20
-48.034924
  0
VERTEX
  8
26 道路
 10
4.503802
 20
-52.151495
  0
SEQEND
  0
POLYLINE
  8
26 道路
 40
0.070556
 41
0.070556
 62
252
 66
1
 10
0
 20
0
 30
0
 70
1
  0
VERTEX
  8
26 道路
 10
-64.607402
 20
-141.489413
  0
VERTEX
  8
26 道路
 10
-64.607402
 20
-146.328596
  0
VERTEX
  8
26 道路
 10
-61.290616
 20
-146.685511
  0
VERTEX
  8
26 道路
 10
-61.232996
 20
-140.008357
  0
VERTEX
  8
26 道路
 10
-68.463350
 20
-139.853671
  0
VERTEX
  8
26 道路
 10
-68.492892
 20
-141.489413
  0
SEQEND
  0
POLYLINE
  8
26 道路
 40
0.070556
 41
0.070556
 62
252
 66
1
 10
0
 20
0
 30
0
 70
1
  0
VERTEX
  8
26 道路
 10
-38.452331
 20
-35.038909
  0
VERTEX
  8
26 道路
 10
-32.200046
 20
-36.491370
  0
VERTEX
  8
26 道路
 10
-31.368481
 20
-32.740671
  0
VERTEX
  8
26 道路
 10
-38.068717
 20
-31.519722
  0
SEQEND
  0
POLYLINE
  8
26 道路
 40
0.070556
 41
0.070556
 62
252
 66
1
 10
0
 20
0
 30
0
 70
1
  0
VERTEX
  8
26 道路
 10
-34.850461
 20
-26.639885
  0
VERTEX
  8
26 道路
 10
-34.468139
 20
-22.173291
  0
VERTEX
  8
26 道路
 10
-37.784064
 20
-21.758843
  0
VERTEX
  8
26 道路
 10
-38.278869
 20
-26.187369
  0
SEQEND
  0
POLYLINE
  8
26 道路
 40
0.070556
 41
0.070556
 62
252
 66
1
 10
0
 20
0
 30
0
 70
1
  0
VERTEX
  8
26 道路
 10
50.568119
 20
-12.505603
  0
VERTEX
  8
26 道路
 10
47.058234
 20
-12.674414
  0
VERTEX
  8
26 道路
 10
47.178468
 20
-16.248378
  0
VERTEX
  8
26 道路
 10
50.709369
 20
-16.270772
  0
SEQEND
  0
POLYLINE
  8
26 道路
 40
0.070556
 41
0.070556
 62
252
 66
1
 10
0
 20
0
 30
0
 70
1
  0
VERTEX
  8
26 道路
 10
-32.394609
 20
-37.369014
  0
VERTEX
  8
26 道路
 10
-38.550689
 20
-35.939290
  0
VERTEX
  8
26 道路
 10
-39.187519
 20
-41.778075
  0
VERTEX
  8
26 道路
 10
-33.664221
 20
-43.096693
  0
SEQEND
  0
POLYLINE
  8
26 道路
 40
0.070556
 41
0.070556
 62
252
 66
1
 10
0
 20
0
 30
0
 70
1
  0
VERTEX
  8
26 道路
 10
-33.558628
 20
-47.510922
  0
VERTEX
  8
26 道路
 10
-30.357167
 20
-48.246455
  0
VERTEX
  8
26 道路
 10
-29.732567
 20
-44.959813
  0
VERTEX
  8
26 道路
 10
-32.829125
 20
-44.220146
  0
SEQEND
  0
POLYLINE
  8
26 道路
 40
0.070556
 41
0.070556
 62
252
 66
1
 10
0
 20
0
 30
0
 70
1
  0
VERTEX
  8
26 道路
 10
-39.285877
 20
-42.678628
  0
VERTEX
  8
26 道路
 10
-39.660103
 20
-46.109104
  0
VERTEX
  8
26 道路
 10
-34.590441
 20
-47.273898
  0
VERTEX
  8
26 道路
 10
-33.858870
 20
-43.974509
  0
SEQEND
  0
POLYLINE
  8
26 道路
 40
0.070556
 41
0.070556
 62
252
 66
1
 10
0
 20
0
 30
0
  0
VERTEX
  8
26 道路
 10
78.317505
 20
-20.275893
  0
VERTEX
  8
26 道路
 10
73.840919
 20
-20.248849
  0
VERTEX
  8
26 道路
 10
73.856939
 20
-23.240244
  0
VERTEX
  8
26 道路
 10
73.248359
 20
-25.008795
  0
VERTEX
  8
26 道路
 10
72.608945
 20
-26.159636
  0
VERTEX
  8
26 道路
 10
72.006739
 20
-27.041758
  0
VERTEX
  8
26 道路
 10
70.742725
 20
-28.100098
  0
VERTEX
  8
26 道路
 10
68.008680
 20
-30.569558
  0
VERTEX
  8
26 道路
 10
65.098245
 20
-33.127213
  0
VERTEX
  8
26 道路
 10
60.611669
 20
-37.917821
  0
VERTEX
  8
26 道路
 10
61.954059
 20
-39.309993
  0
VERTEX
  8
26 道路
 10
62.139923
 20
-41.701421
  0
VERTEX
  8
26 道路
 10
68.322358
 20
-41.272676
  0
VERTEX
  8
26 道路
 10
68.697015
 20
-38.888483
  0
VERTEX
  8
26 道路
 10
69.410154
 20
-36.272433
  0
VERTEX
  8
26 道路
 10
69.431169
 20
-36.236432
 42
-0.000333
  0
VERTEX
  8
26 道路
 10
70.848146
 20
-33.797633
  0
VERTEX
  8
26 道路
 10
72.352284
 20
-31.581217
  0
VERTEX
  8
26 道路
 10
72.379156
 20
-31.556412
  0
VERTEX
  8
26 道路
 10
74.327198
 20
-29.764262
  0
VERTEX
  8
26 道路
 10
75.911435
 20
-28.259263
  0
VERTEX
  8
26 道路
 10
75.938134
 20
-28.242382
 42
-0.000507
  0
VERTEX
  8
26 道路
 10
78.028804
 20
-26.926864
  0
VERTEX
  8
26 道路
 10
78.317505
 20
-26.717917
  0
SEQEND
  0
POLYLINE
  8
26 道路
 40
0.070556
 41
0.070556
 62
252
 66
1
 10
0
 20
0
 30
0
 70
1
  0
VERTEX
  8
26 道路
 10
-59.978371
 20
-86.831767
  0
VERTEX
  8
26 道路
 10
-60.045895
 20
-94.631168
  0
VERTEX
  8
26 道路
 10
-55.112573
 20
-94.700415
  0
VERTEX
  8
26 道路
 10
-55.035316
 20
-86.831767
  0
SEQEND
  0
POLYLINE
  8
26 道路
 40
0.070556
 41
0.070556
 62
252
 66
1
 10
0
 20
0
 30
0
 70
1
  0
VERTEX
  8
26 道路
 10
-55.268895
 20
-86.271247
  0
VERTEX
  8
26 道路
 10
-55.164681
 20
-86.256777
  0
VERTEX
  8
26 道路
 10
-59.254293
 20
-84.827053
  0
VERTEX
  8
26 道路
 10
-59.832039
 20
-86.271247
  0
SEQEND
  0
POLYLINE
  8
26 道路
 40
0.070556
 41
0.070556
 62
252
 66
1
 10
0
 20
0
 30
0
 70
1
  0
VERTEX
  8
26 道路
 10
-60.051149
 20
-95.220111
  0
VERTEX
  8
26 道路
 10
-60.087839
 20
-99.486716
  0
VERTEX
  8
26 道路
 10
-55.160460
 20
-99.545283
  0
VERTEX
  8
26 道路
 10
-55.118516
 20
-95.289013
  0
SEQEND
  0
POLYLINE
  8
26 道路
 40
0.070556
 41
0.070556
 62
252
 66
1
 10
0
 20
0
 30
0
 70
1
  0
VERTEX
  8
26 道路
 10
-60.092490
 20
-100.011063
  0
VERTEX
  8
26 道路
 10
-60.137018
 20
-105.196653
  0
VERTEX
  8
26 道路
 10
-55.216357
 20
-105.241095
  0
VERTEX
  8
26 道路
 10
-55.165456
 20
-100.068941
  0
SEQEND
  0
POLYLINE
  8
26 道路
 40
0.070556
 41
0.070556
 62
252
 66
1
 10
0
 20
0
 30
0
 70
1
  0
VERTEX
  8
26 道路
 10
-60.141669
 20
-105.726340
  0
VERTEX
  8
26 道路
 10
-60.186972
 20
-110.974287
  0
VERTEX
  8
26 道路
 10
-55.272771
 20
-110.974287
  0
VERTEX
  8
26 道路
 10
-55.221525
 20
-105.770610
  0
SEQEND
  0
POLYLINE
  8
26 道路
 40
0.070556
 41
0.070556
 62
252
 66
1
 10
0
 20
0
 30
0
 70
1
  0
VERTEX
  8
26 道路
 10
-60.194035
 20
-111.797498
  0
VERTEX
  8
26 道路
 10
-60.268449
 20
-120.410119
  0
VERTEX
  8
26 道路
 10
-55.369321
 20
-120.780124
  0
VERTEX
  8
26 道路
 10
-55.280781
 20
-111.797498
  0
SEQEND
  0
POLYLINE
  8
26 道路
 40
0.070556
 41
0.070556
 62
252
 66
1
 10
0
 20
0
 30
0
 70
1
  0
VERTEX
  8
26 道路
 10
-60.273100
 20
-120.938944
  0
VERTEX
  8
26 道路
 10
-60.302470
 20
-124.348060
  0
VERTEX
  8
26 道路
 10
-55.407475
 20
-124.656915
  0
VERTEX
  8
26 道路
 10
-55.374488
 20
-121.308777
  0
SEQEND
  0
POLYLINE
  8
26 道路
 40
0.070556
 41
0.070556
 62
252
 66
1
 10
0
 20
0
 30
0
 70
1
  0
VERTEX
  8
26 道路
 10
-60.307724
 20
-124.939242
  0
VERTEX
  8
26 道路
 10
-60.369736
 20
-132.134714
  0
VERTEX
  8
26 道路
 10
-55.488091
 20
-132.859222
  0
VERTEX
  8
26 道路
 10
-55.413504
 20
-125.248097
  0
SEQEND
  0
POLYLINE
  8
26 道路
 40
0.070556
 41
0.070556
 62
252
 66
1
 10
0
 20
0
 30
0
 70
1
  0
VERTEX
  8
26 道路
 10
-60.382052
 20
-133.561509
  0
VERTEX
  8
26 道路
 10
-60.430456
 20
-139.143632
  0
VERTEX
  8
26 道路
 10
-53.342386
 20
-139.295217
  0
VERTEX
  8
26 道路
 10
-53.288642
 20
-134.614164
  0
SEQEND
  0
POLYLINE
  8
26 道路
 40
0.070556
 41
0.070556
 62
252
 66
1
 10
0
 20
0
 30
0
 70
1
  0
VERTEX
  8
26 道路
 10
-53.272192
 20
-133.187886
  0
VERTEX
  8
26 道路
 10
-53.136626
 20
-121.322213
  0
VERTEX
  8
26 道路
 10
-54.845490
 20
-121.322213
  0
VERTEX
  8
26 道路
 10
-54.959610
 20
-132.937770
  0
SEQEND
  0
POLYLINE
  8
26 道路
 40
0.070556
 41
0.070556
 62
252
 66
1
 10
0
 20
0
 30
0
 70
1
  0
VERTEX
  8
26 道路
 10
-53.130597
 20
-120.793043
  0
VERTEX
  8
26 道路
 10
-52.958858
 20
-105.790936
  0
VERTEX
  8
26 道路
 10
-54.692527
 20
-105.775261
  0
VERTEX
  8
26 道路
 10
-54.840323
 20
-120.793043
  0
SEQEND
  0
POLYLINE
  8
26 道路
 40
0.070556
 41
0.070556
 62
252
 66
1
 10
0
 20
0
 30
0
 70
1
  0
VERTEX
  8
26 道路
 10
-52.952312
 20
-105.261422
  0
VERTEX
  8
26 道路
 10
-52.838710
 20
-95.321053
  0
VERTEX
  8
26 道路
 10
-54.589346
 20
-95.296592
  0
VERTEX
  8
26 道路
 10
-54.687446
 20
-105.245574
  0
SEQEND
  0
POLYLINE
  8
26 道路
 40
0.070556
 41
0.070556
 62
252
 66
1
 10
0
 20
0
 30
0
 70
1
  0
VERTEX
  8
26 道路
 10
-52.831992
 20
-94.732282
  0
VERTEX
  8
26 道路
 10
-52.757491
 20
-88.235136
  0
VERTEX
  8
26 道路
 10
-53.736077
 20
-86.755975
  0
VERTEX
  8
26 道路
 10
-53.922544
 20
-86.690862
  0
VERTEX
  8
26 道路
 10
-54.505716
 20
-86.789392
  0
VERTEX
  8
26 道路
 10
-54.583403
 20
-94.707994
  0
SEQEND
  0
POLYLINE
  8
26 道路
 40
0.070556
 41
0.070556
 62
252
 66
1
 10
0
 20
0
 30
0
 70
1
  0
VERTEX
  8
26 道路
 10
-52.435545
 20
-81.482017
  0
VERTEX
  8
26 道路
 10
-52.199468
 20
-79.947734
  0
VERTEX
  8
26 道路
 10
-53.076940
 20
-78.046374
  0
VERTEX
  8
26 道路
 10
-54.574446
 20
-78.066528
  0
VERTEX
  8
26 道路
 10
-54.494261
 20
-78.106491
  0
VERTEX
  8
26 道路
 10
-54.494261
 20
-80.811253
  0
VERTEX
  8
26 道路
 10
-54.978127
 20
-82.188438
  0
VERTEX
  8
26 道路
 10
-53.926075
 20
-82.553965
  0
SEQEND
  0
POLYLINE
  8
26 道路
 40
0.070556
 41
0.070556
 62
252
 66
1
 10
0
 20
0
 30
0
 70
1
  0
VERTEX
  8
26 道路
 10
-51.823261
 20
-77.501701
  0
VERTEX
  8
26 道路
 10
-51.394172
 20
-74.712362
  0
VERTEX
  8
26 道路
 10
-53.965091
 20
-73.814564
  0
VERTEX
  8
26 道路
 10
-59.907487
 20
-73.220454
  0
VERTEX
  8
26 道路
 10
-59.962351
 20
-73.696913
  0
VERTEX
  8
26 道路
 10
-59.811885
 20
-77.608155
  0
SEQEND
  0
POLYLINE
  8
26 道路
 40
0.070556
 41
0.070556
 62
252
 66
1
 10
0
 20
0
 30
0
 70
1
  0
VERTEX
  8
26 道路
 10
-58.380353
 20
-65.385568
  0
VERTEX
  8
26 道路
 10
-59.433181
 20
-69.110773
  0
VERTEX
  8
26 道路
 10
-59.839705
 20
-72.633061
  0
VERTEX
  8
26 道路
 10
-56.927461
 20
-72.924518
  0
VERTEX
  8
26 道路
 10
-56.169966
 20
-68.758166
  0
VERTEX
  8
26 道路
 10
-55.378967
 20
-66.422721
  0
SEQEND
  0
POLYLINE
  8
26 道路
 40
0.070556
 41
0.070556
 62
252
 66
1
 10
0
 20
0
 30
0
 70
1
  0
VERTEX
  8
26 道路
 10
-55.760427
 20
-65.016941
  0
VERTEX
  8
26 道路
 10
-55.158307
 20
-60.236324
  0
VERTEX
  8
26 道路
 10
-66.191467
 20
-58.597654
  0
VERTEX
  8
26 道路
 10
-66.483096
 20
-61.311889
  0
SEQEND
  0
POLYLINE
  8
26 道路
 40
0.070556
 41
0.070556
 62
252
 66
1
 10
0
 20
0
 30
0
 70
1
  0
VERTEX
  8
26 道路
 10
-51.305202
 20
-74.134615
  0
VERTEX
  8
26 道路
 10
-50.384236
 20
-68.148552
  0
VERTEX
  8
26 道路
 10
-55.023086
 20
-66.545539
  0
VERTEX
  8
26 道路
 10
-55.817186
 20
-68.890458
  0
VERTEX
  8
26 道路
 10
-56.557283
 20
-72.961381
  0
VERTEX
  8
26 道路
 10
-53.906179
 20
-73.226483
  0
SEQEND
  0
POLYLINE
  8
26 道路
 40
0.070556
 41
0.070556
 62
252
 66
1
 10
0
 20
0
 30
0
 70
1
  0
VERTEX
  8
26 道路
 10
-50.213100
 20
-66.934148
  0
VERTEX
  8
26 道路
 10
-48.902836
 20
-55.637265
  0
VERTEX
  8
26 道路
 10
-53.647279
 20
-55.011287
  0
VERTEX
  8
26 道路
 10
-54.943246
 20
-65.299440
  0
SEQEND
  0
POLYLINE
  8
26 道路
 40
0.070556
 41
0.070556
 62
252
 66
1
 10
0
 20
0
 30
0
 70
1
  0
VERTEX
  8
26 道路
 10
28.761905
 20
-71.991753
  0
VERTEX
  8
26 道路
 10
28.820817
 20
-69.992723
  0
VERTEX
  8
26 道路
 10
29.122265
 20
-68.588838
  0
VERTEX
  8
26 道路
 10
25.851470
 20
-68.298242
  0
VERTEX
  8
26 道路
 10
26.129836
 20
-78.989991
  0
VERTEX
  8
26 道路
 10
29.169118
 20
-78.483559
  0
SEQEND
  0
POLYLINE
  8
26 道路
 40
0.070556
 41
0.070556
 62
252
 66
1
 10
0
 20
0
 30
0
 70
1
  0
VERTEX
  8
26 道路
 10
26.149817
 20
-79.759975
  0
VERTEX
  8
26 道路
 10
26.332409
 20
-86.762520
  0
VERTEX
  8
26 道路
 10
29.667799
 20
-86.424899
  0
VERTEX
  8
26 道路
 10
29.217005
 20
-79.248892
  0
SEQEND
  0
POLYLINE
  8
26 道路
 40
0.070556
 41
0.070556
 62
252
 66
1
 10
0
 20
0
 30
0
 70
1
  0
VERTEX
  8
26 道路
 10
26.355491
 20
-87.659973
  0
VERTEX
  8
26 道路
 10
26.506215
 20
-93.445014
  0
VERTEX
  8
26 道路
 10
30.627781
 20
-94.869226
  0
VERTEX
  8
26 道路
 10
30.819674
 20
-94.216893
  0
VERTEX
  8
26 道路
 10
30.760762
 20
-93.334943
  0
VERTEX
  8
26 道路
 10
29.757544
 20
-87.315462
  0
SEQEND
  0
POLYLINE
  8
26 道路
 40
0.070556
 41
0.070556
 62
252
 66
1
 10
0
 20
0
 30
0
 70
1
  0
VERTEX
  8
26 道路
 10
27.793483
 20
-107.687645
  0
VERTEX
  8
26 道路
 10
33.186125
 20
-109.534400
  0
VERTEX
  8
26 道路
 10
35.816816
 20
-107.061840
  0
VERTEX
  8
26 道路
 10
37.460137
 20
-102.788689
  0
VERTEX
  8
26 道路
 10
37.265144
 20
-99.428838
  0
VERTEX
  8
26 道路
 10
31.231021
 20
-97.339891
  0
SEQEND
  0
POLYLINE
  8
26 道路
 40
0.070556
 41
0.070556
 62
252
 66
1
 10
0
 20
0
 30
0
 70
1
  0
VERTEX
  8
26 道路
 10
32.171882
 20
-94.393283
  0
VERTEX
  8
26 道路
 10
31.878014
 20
-95.392883
  0
VERTEX
  8
26 道路
 10
31.626176
 20
-96.150292
  0
VERTEX
  8
26 道路
 10
37.186250
 20
-98.075079
  0
VERTEX
  8
26 道路
 10
36.523065
 20
-86.661578
  0
VERTEX
  8
26 道路
 10
31.058765
 20
-87.184030
  0
VERTEX
  8
26 道路
 10
32.112971
 20
-93.511333
  0
SEQEND
  0
POLYLINE
  8
26 道路
 40
0.070556
 41
0.070556
 62
252
 66
1
 10
0
 20
0
 30
0
  0
VERTEX
  8
26 道路
 10
66.244780
 20
-9.697833
  0
VERTEX
  8
26 道路
 10
66.244780
 20
-13.014275
  0
VERTEX
  8
26 道路
 10
72.312148
 20
-14.262613
  0
VERTEX
  8
26 道路
 10
72.287860
 20
-9.697833
  0
SEQEND
  0
POLYLINE
  8
26 道路
 40
0.070556
 41
0.070556
 62
252
 66
1
 10
0
 20
0
 30
0
 70
1
  0
VERTEX
  8
26 道路
 10
61.448488
 20
-12.819970
  0
VERTEX
  8
26 道路
 10
61.630046
 20
-16.339846
  0
VERTEX
  8
26 道路
 10
61.748213
 20
-16.340363
  0
VERTEX
  8
26 道路
 10
72.334542
 20
-18.457732
  0
VERTEX
  8
26 道路
 10
72.316283
 20
-15.057401
  0
SEQEND
  0
POLYLINE
  8
26 道路
 40
0.070556
 41
0.070556
 62
252
 66
1
 10
0
 20
0
 30
0
 70
1
  0
VERTEX
  8
26 道路
 10
64.910659
 20
-31.469423
  0
VERTEX
  8
26 道路
 10
67.038535
 20
-29.599413
  0
VERTEX
  8
26 道路
 10
69.507306
 20
-27.369044
  0
VERTEX
  8
26 道路
 10
66.421170
 20
-26.424393
  0
VERTEX
  8
26 道路
 10
62.165417
 20
-26.722913
  0
VERTEX
  8
26 道路
 10
62.348008
 20
-30.254502
  0
VERTEX
  8
26 道路
 10
62.400719
 20
-30.257603
  0
SEQEND
  0
POLYLINE
  8
26 道路
 40
0.070556
 41
0.070556
 62
252
 66
1
 10
0
 20
0
 30
0
 70
1
  0
VERTEX
  8
26 道路
 10
62.291853
 20
-31.236533
  0
VERTEX
  8
26 道路
 10
59.204683
 20
-31.054803
  0
VERTEX
  8
26 道路
 10
59.100641
 20
-34.891113
  0
VERTEX
  8
26 道路
 10
59.408290
 20
-37.196758
  0
VERTEX
  8
26 道路
 10
64.128100
 20
-32.157068
  0
VERTEX
  8
26 道路
 10
64.153250
 20
-32.134675
  0
SEQEND
  0
POLYLINE
  8
26 道路
 40
0.070556
 41
0.070556
 62
252
 66
1
 10
0
 20
0
 30
0
 70
1
  0
VERTEX
  8
26 道路
 10
70.156711
 20
-26.808352
  0
VERTEX
  8
26 道路
 10
71.036594
 20
-26.071613
  0
VERTEX
  8
26 道路
 10
71.638800
 20
-25.189491
  0
VERTEX
  8
26 道路
 10
72.278214
 20
-24.038650
  0
VERTEX
  8
26 道路
 10
72.316455
 20
-23.440750
  0
VERTEX
  8
26 道路
 10
67.391315
 20
-22.455618
  0
VERTEX
  8
26 道路
 10
61.925292
 20
-22.059602
  0
VERTEX
  8
26 道路
 10
62.129932
 20
-26.032339
  0
VERTEX
  8
26 道路
 10
66.597560
 20
-25.718833
  0
SEQEND
  0
POLYLINE
  8
26 道路
 40
0.070556
 41
0.070556
 62
252
 66
1
 10
0
 20
0
 30
0
 70
1
  0
VERTEX
  8
26 道路
 10
72.357452
 20
-22.725371
  0
VERTEX
  8
26 道路
 10
72.339882
 20
-19.480932
  0
VERTEX
  8
26 道路
 10
61.682412
 20
-17.349438
  0
VERTEX
  8
26 道路
 10
61.888430
 20
-21.344913
  0
VERTEX
  8
26 道路
 10
67.479510
 20
-21.750058
  0
SEQEND
  0
POLYLINE
  8
26 道路
 40
0.070556
 41
0.070556
 62
252
 66
1
 10
0
 20
0
 30
0
  0
VERTEX
  8
26 道路
 10
65.715610
 20
-9.697833
  0
VERTEX
  8
26 道路
 10
65.715610
 20
-12.904375
  0
VERTEX
  8
26 道路
 10
61.407147
 20
-12.017775
  0
VERTEX
  8
26 道路
 10
61.287601
 20
-9.697833
  0
SEQEND
  0
POLYLINE
  8
26 道路
 40
0.070556
 41
0.070556
 62
252
 66
1
 10
0
 20
0
 30
0
 70
1
  0
VERTEX
  8
26 道路
 10
60.886590
 20
-17.314987
  0
VERTEX
  8
26 道路
 10
51.451792
 20
-17.252802
  0
VERTEX
  8
26 道路
 10
51.643857
 20
-22.386544
  0
VERTEX
  8
26 道路
 10
61.094330
 20
-21.342329
  0
SEQEND
  0
POLYLINE
  8
26 道路
 40
0.070556
 41
0.070556
 62
252
 66
1
 10
0
 20
0
 30
0
 70
1
  0
VERTEX
  8
26 道路
 10
51.669868
 20
-23.079357
  0
VERTEX
  8
26 道路
 10
51.807845
 20
-26.756675
  0
VERTEX
  8
26 道路
 10
61.339278
 20
-26.087805
  0
VERTEX
  8
26 道路
 10
61.130159
 20
-22.033936
  0
SEQEND
  0
POLYLINE
  8
26 道路
 40
0.070556
 41
0.070556
 62
252
 66
1
 10
0
 20
0
 30
0
 70
1
  0
VERTEX
  8
26 道路
 10
51.833511
 20
-27.448110
  0
VERTEX
  8
26 道路
 10
51.936520
 20
-30.193352
  0
VERTEX
  8
26 道路
 10
55.007153
 20
-29.822829
  0
VERTEX
  8
26 道路
 10
61.551842
 20
-30.207649
  0
VERTEX
  8
26 道路
 10
61.374763
 20
-26.778551
  0
SEQEND
  0
POLYLINE
  8
26 道路
 40
0.070556
 41
0.070556
 62
252
 66
1
 10
0
 20
0
 30
0
 70
1
  0
VERTEX
  8
26 道路
 10
55.755432
 20
-30.851886
  0
VERTEX
  8
26 道路
 10
56.286325
 20
-34.858901
  0
VERTEX
  8
26 道路
 10
58.523239
 20
-34.626528
  0
VERTEX
  8
26 道路
 10
58.620736
 20
-31.020524
  0
SEQEND
  0
POLYLINE
  8
26 道路
 40
0.070556
 41
0.070556
 62
252
 66
1
 10
0
 20
0
 30
0
 70
1
  0
VERTEX
  8
26 道路
 10
46.760920
 20
-36.495332
  0
VERTEX
  8
26 道路
 10
47.069947
 20
-41.130565
  0
VERTEX
  8
26 道路
 10
48.284006
 20
-43.179721
  0
VERTEX
  8
26 道路
 10
51.516215
 20
-41.682128
  0
VERTEX
  8
26 道路
 10
53.897480
 20
-40.623788
  0
VERTEX
  8
26 道路
 10
56.366940
 20
-39.565448
  0
VERTEX
  8
26 道路
 10
58.878259
 20
-37.746943
  0
VERTEX
  8
26 道路
 10
58.547700
 20
-35.270765
  0
SEQEND
  0
POLYLINE
  8
26 道路
 40
0.070556
 41
0.070556
 62
252
 66
1
 10
0
 20
0
 30
0
 70
1
  0
VERTEX
  8
26 道路
 10
46.312710
 20
-46.091878
  0
VERTEX
  8
26 道路
 10
44.637005
 20
-47.414803
  0
VERTEX
  8
26 道路
 10
42.211643
 20
-49.663776
  0
VERTEX
  8
26 道路
 10
38.628032
 20
-54.224422
  0
VERTEX
  8
26 道路
 10
38.901574
 20
-56.830998
  0
VERTEX
  8
26 道路
 10
44.225314
 20
-50.354522
  0
VERTEX
  8
26 道路
 10
56.445489
 20
-49.344069
  0
VERTEX
  8
26 道路
 10
56.190550
 20
-45.739098
  0
VERTEX
  8
26 道路
 10
61.401979
 20
-41.865753
  0
VERTEX
  8
26 道路
 10
61.222661
 20
-39.553907
  0
VERTEX
  8
26 道路
 10
60.135210
 20
-38.426493
  0
VERTEX
  8
26 道路
 10
59.894740
 20
-38.683498
  0
VERTEX
  8
26 道路
 10
57.337085
 20
-40.535593
  0
VERTEX
  8
26 道路
 10
54.573757
 20
-41.770323
  0
VERTEX
  8
26 道路
 10
52.192492
 20
-42.828663
  0
VERTEX
  8
26 道路
 10
48.870365
 20
-44.327978
  0
SEQEND
  0
POLYLINE
  8
26 道路
 40
0.070556
 41
0.070556
 62
252
 66
1
 10
0
 20
0
 30
0
 70
1
  0
VERTEX
  8
26 道路
 10
-42.940716
 20
-73.608891
  0
VERTEX
  8
26 道路
 10
-43.117106
 20
-74.049866
  0
VERTEX
  8
26 道路
 10
-44.563624
 20
-73.626461
  0
VERTEX
  8
26 道路
 10
-46.051743
 20
-78.090988
  0
VERTEX
  8
26 道路
 10
-41.139006
 20
-78.736259
  0
VERTEX
  8
26 道路
 10
-39.984288
 20
-71.742326
  0
VERTEX
  8
26 道路
 10
-43.527419
 20
-70.517931
  0
VERTEX
  8
26 道路
 10
-44.414106
 20
-73.177734
  0
SEQEND
  0
POLYLINE
  8
26 道路
 40
0.070556
 41
0.070556
 62
252
 66
1
 10
0
 20
0
 30
0
  0
VERTEX
  8
26 道路
 10
22.622190
 20
-159.787291
  0
VERTEX
  8
26 道路
 10
23.979738
 20
-145.814929
  0
VERTEX
  8
26 道路
 10
30.418318
 20
-122.048444
  0
VERTEX
  8
26 道路
 10
37.404326
 20
-127.554603
  0
VERTEX
  8
26 道路
 10
40.592093
 20
-159.787291
  0
SEQEND
  0
POLYLINE
  8
26 道路
 40
0.070556
 41
0.070556
 62
252
 66
1
 10
0
 20
0
 30
0
  0
VERTEX
  8
26 道路
 10
78.317505
 20
-107.969973
  0
VERTEX
  8
26 道路
 10
77.864472
 20
-108.018721
  0
VERTEX
  8
26 道路
 10
78.317505
 20
-114.497781
  0
SEQEND
  0
POLYLINE
  8
26 道路
 40
0.070556
 41
0.070556
 62
252
 66
1
 10
0
 20
0
 30
0
  0
VERTEX
  8
26 道路
 10
78.317505
 20
-90.152171
  0
VERTEX
  8
26 道路
 10
77.108268
 20
-90.269305
  0
VERTEX
  8
26 道路
 10
76.796141
 20
-90.519076
  0
VERTEX
  8
26 道路
 10
76.565662
 20
-91.363819
  0
VERTEX
  8
26 道路
 10
76.728272
 20
-94.049288
  0
VERTEX
  8
26 道路
 10
78.317505
 20
-93.920096
  0
SEQEND
  0
POLYLINE
  8
26 道路
 40
0.070556
 41
0.070556
 62
252
 66
1
 10
0
 20
0
 30
0
 70
1
  0
VERTEX
  8
26 道路
 10
-27.953078
 20
-125.150083
  0
VERTEX
  8
26 道路
 10
-27.715882
 20
-131.268956
  0
VERTEX
  8
26 道路
 10
-18.575727
 20
-132.294912
  0
VERTEX
  8
26 道路
 10
-18.122178
 20
-128.080500
  0
SEQEND
  0
POLYLINE
  8
26 道路
 40
0.070556
 41
0.070556
 62
252
 66
1
 10
0
 20
0
 30
0
 70
1
  0
VERTEX
  8
26 道路
 10
-25.851987
 20
-124.717893
  0
VERTEX
  8
26 道路
 10
-20.029567
 20
-126.453371
  0
VERTEX
  8
26 道路
 10
-18.367901
 20
-111.914976
  0
VERTEX
  8
26 道路
 10
-25.319458
 20
-109.945403
  0
VERTEX
  8
26 道路
 10
-26.183666
 20
-114.266613
  0
SEQEND
  0
POLYLINE
  8
26 道路
 40
0.070556
 41
0.070556
 62
252
 66
1
 10
0
 20
0
 30
0
  0
VERTEX
  8
26 道路
 10
-19.441141
 20
-159.787291
  0
VERTEX
  8
26 道路
 10
-19.422709
 20
-158.727745
  0
VERTEX
  8
26 道路
 10
-27.366719
 20
-158.222347
  0
VERTEX
  8
26 道路
 10
-27.356470
 20
-159.787291
  0
SEQEND
  0
POLYLINE
  8
26 道路
 40
0.070556
 41
0.070556
 62
252
 66
1
 10
0
 20
0
 30
0
 70
1
  0
VERTEX
  8
26 道路
 10
-19.404364
 20
-157.663204
  0
VERTEX
  8
26 道路
 10
-19.331672
 20
-153.464123
  0
VERTEX
  8
26 道路
 10
-27.400826
 20
-152.951490
  0
VERTEX
  8
26 道路
 10
-27.373523
 20
-157.156428
  0
SEQEND
  0
POLYLINE
  8
26 道路
 40
0.070556
 41
0.070556
 62
252
 66
1
 10
0
 20
0
 30
0
 70
1
  0
VERTEX
  8
26 道路
 10
-19.317461
 20
-152.634883
  0
VERTEX
  8
26 道路
 10
-19.243994
 20
-148.397734
  0
VERTEX
  8
26 道路
 10
-27.433813
 20
-147.912145
  0
VERTEX
  8
26 道路
 10
-27.406079
 20
-152.120183
  0
SEQEND
  0
POLYLINE
  8
26 道路
 40
0.070556
 41
0.070556
 62
252
 66
1
 10
0
 20
0
 30
0
 70
1
  0
VERTEX
  8
26 道路
 10
-19.160278
 20
-143.558378
  0
VERTEX
  8
26 道路
 10
-27.461287
 20
-143.656219
  0
VERTEX
  8
26 道路
 10
-27.440875
 20
-146.839852
  0
VERTEX
  8
26 道路
 10
-19.225390
 20
-147.326130
  0
SEQEND
  0
POLYLINE
  8
26 道路
 40
0.070556
 41
0.070556
 62
252
 66
1
 10
0
 20
0
 30
0
 70
1
  0
VERTEX
  8
26 道路
 10
-19.143913
 20
-142.620272
  0
VERTEX
  8
26 道路
 10
-19.056924
 20
-137.589368
  0
VERTEX
  8
26 道路
 10
-27.502198
 20
-137.336152
  0
VERTEX
  8
26 道路
 10
-27.467403
 20
-142.718114
  0
SEQEND
  0
POLYLINE
  8
26 道路
 40
0.070556
 41
0.070556
 62
252
 66
1
 10
0
 20
0
 30
0
 70
1
  0
VERTEX
  8
26 道路
 10
-27.674023
 20
-132.345210
  0
VERTEX
  8
26 道路
 10
-27.535530
 20
-135.920553
  0
VERTEX
  8
26 道路
 10
-18.993620
 20
-136.176870
  0
VERTEX
  8
26 道路
 10
-18.689588
 20
-133.353596
  0
SEQEND
  0
POLYLINE
  8
26 道路
 40
0.070556
 41
0.070556
 62
252
 66
1
 10
0
 20
0
 30
0
 70
1
  0
VERTEX
  8
26 道路
 10
-16.441650
 20
-112.460855
  0
VERTEX
  8
26 道路
 10
-17.770001
 20
-112.084476
  0
VERTEX
  8
26 道路
 10
-19.432442
 20
-126.631483
  0
VERTEX
  8
26 道路
 10
-18.011848
 20
-127.054888
  0
SEQEND
  0
POLYLINE
  8
26 道路
 40
0.070556
 41
0.070556
 62
252
 66
1
 10
0
 20
0
 30
0
 70
1
  0
VERTEX
  8
26 道路
 10
-16.331406
 20
-111.433693
  0
VERTEX
  8
26 道路
 10
-15.847797
 20
-106.940227
  0
VERTEX
  8
26 道路
 10
-26.767613
 20
-102.998669
  0
VERTEX
  8
26 道路
 10
-27.548191
 20
-108.255745
  0
SEQEND
  0
POLYLINE
  8
26 道路
 40
0.070556
 41
0.070556
 62
252
 66
1
 10
0
 20
0
 30
0
  0
VERTEX
  8
26 道路
 10
-28.414982
 20
-159.787291
  0
VERTEX
  8
26 道路
 10
-28.425662
 20
-158.154995
  0
VERTEX
  8
26 道路
 10
-40.635329
 20
-157.378638
  0
VERTEX
  8
26 道路
 10
-40.805863
 20
-159.787291
  0
SEQEND
  0
POLYLINE
  8
26 道路
 40
0.070556
 41
0.070556
 62
252
 66
1
 10
0
 20
0
 30
0
 70
1
  0
VERTEX
  8
26 道路
 10
-28.432294
 20
-157.088731
  0
VERTEX
  8
26 道路
 10
-28.459682
 20
-152.883965
  0
VERTEX
  8
26 道路
 10
-40.264032
 20
-152.132930
  0
VERTEX
  8
26 道路
 10
-40.560226
 20
-156.317714
  0
SEQEND
  0
POLYLINE
  8
26 道路
 40
0.070556
 41
0.070556
 62
252
 66
1
 10
0
 20
0
 30
0
 70
1
  0
VERTEX
  8
26 道路
 10
-42.499741
 20
-124.732363
  0
VERTEX
  8
26 道路
 10
-42.861909
 20
-128.353181
  0
VERTEX
  8
26 道路
 10
-40.912231
 20
-128.752125
  0
VERTEX
  8
26 道路
 10
-41.689019
 20
-122.403119
  0
VERTEX
  8
26 道路
 10
-47.414631
 20
-121.427117
  0
VERTEX
  8
26 道路
 10
-47.497572
 20
-123.909152
  0
SEQEND
  0
POLYLINE
  8
26 道路
 40
0.070556
 41
0.070556
 62
252
 66
1
 10
0
 20
0
 30
0
 70
1
  0
VERTEX
  8
26 道路
 10
-41.661113
 20
-117.065254
  0
VERTEX
  8
26 道路
 10
-29.270663
 20
-118.460010
  0
VERTEX
  8
26 道路
 10
-29.429225
 20
-114.365488
  0
VERTEX
  8
26 道路
 10
-41.879275
 20
-112.481698
  0
SEQEND
  0
POLYLINE
  8
26 道路
 40
0.070556
 41
0.070556
 62
252
 66
1
 10
0
 20
0
 30
0
 70
1
  0
VERTEX
  8
26 道路
 10
-40.441972
 20
-121.557343
  0
VERTEX
  8
26 道路
 10
-29.063181
 20
-123.810621
  0
VERTEX
  8
26 道路
 10
-29.239571
 20
-119.257382
  0
VERTEX
  8
26 道路
 10
-41.623045
 20
-117.863316
  0
VERTEX
  8
26 道路
 10
-41.455267
 20
-121.384914
  0
SEQEND
  0
POLYLINE
  8
26 道路
 40
0.070556
 41
0.070556
 62
252
 66
1
 10
0
 20
0
 30
0
 70
1
  0
VERTEX
  8
26 道路
 10
-40.441972
 20
-122.615683
  0
VERTEX
  8
26 道路
 10
-39.844933
 20
-128.963828
  0
VERTEX
  8
26 道路
 10
-28.780251
 20
-131.112547
  0
VERTEX
  8
26 道路
 10
-29.021926
 20
-124.877058
  0
SEQEND
  0
POLYLINE
  8
26 道路
 40
0.070556
 41
0.070556
 62
252
 66
1
 10
0
 20
0
 30
0
 70
1
  0
VERTEX
  8
26 道路
 10
-40.205723
 20
-151.306102
  0
VERTEX
  8
26 道路
 10
-34.174443
 20
-151.689716
  0
VERTEX
  8
26 道路
 10
-33.649838
 20
-143.295515
  0
VERTEX
  8
26 道路
 10
-39.609632
 20
-142.890025
  0
SEQEND
  0
POLYLINE
  8
26 道路
 40
0.070556
 41
0.070556
 62
252
 66
1
 10
0
 20
0
 30
0
 70
1
  0
VERTEX
  8
26 道路
 10
-28.465022
 20
-152.052831
  0
VERTEX
  8
26 道路
 10
-28.492325
 20
-147.849271
  0
VERTEX
  8
26 道路
 10
-33.094226
 20
-147.576762
  0
VERTEX
  8
26 道路
 10
-33.354677
 20
-151.741909
  0
SEQEND
  0
POLYLINE
  8
26 道路
 40
0.070556
 41
0.070556
 62
252
 66
1
 10
0
 20
0
 30
0
 70
1
  0
VERTEX
  8
26 道路
 10
-28.499387
 20
-146.776462
  0
VERTEX
  8
26 道路
 10
-28.519627
 20
-143.644161
  0
VERTEX
  8
26 道路
 10
-32.830158
 20
-143.351154
  0
VERTEX
  8
26 道路
 10
-33.027391
 20
-146.508432
  0
SEQEND
  0
POLYLINE
  8
26 道路
 40
0.070556
 41
0.070556
 62
252
 66
1
 10
0
 20
0
 30
0
 70
1
  0
VERTEX
  8
26 道路
 10
-28.525915
 20
-142.686935
  0
VERTEX
  8
26 道路
 10
-28.560797
 20
-137.304456
  0
VERTEX
  8
26 道路
 10
-39.191653
 20
-136.985094
  0
VERTEX
  8
26 道路
 10
-39.542280
 20
-141.938139
  0
SEQEND
  0
POLYLINE
  8
26 道路
 40
0.070556
 41
0.070556
 62
252
 66
1
 10
0
 20
0
 30
0
 70
1
  0
VERTEX
  8
26 道路
 10
-28.595248
 20
-135.888858
  0
VERTEX
  8
26 道路
 10
-28.738048
 20
-132.201721
  0
VERTEX
  8
26 道路
 10
-39.741494
 20
-130.065059
  0
VERTEX
  8
26 道路
 10
-39.224037
 20
-135.569840
  0
SEQEND
  0
POLYLINE
  8
26 道路
 40
0.070556
 41
0.070556
 62
252
 66
1
 10
0
 20
0
 30
0
 70
1
  0
VERTEX
  8
26 道路
 10
-28.718841
 20
-109.011776
  0
VERTEX
  8
26 道路
 10
-34.562191
 20
-107.798923
  0
VERTEX
  8
26 道路
 10
-42.118108
 20
-107.465607
  0
VERTEX
  8
26 道路
 10
-41.930005
 20
-111.415607
  0
VERTEX
  8
26 道路
 10
-29.358341
 20
-113.318000
  0
SEQEND
  0
POLYLINE
  8
26 道路
 40
0.070556
 41
0.070556
 62
252
 66
1
 10
0
 20
0
 30
0
 70
1
  0
VERTEX
  8
26 道路
 10
-34.562191
 20
-106.740583
  0
VERTEX
  8
26 道路
 10
-33.072436
 20
-107.049782
  0
VERTEX
  8
26 道路
 10
-32.750834
 20
-104.228059
  0
VERTEX
  8
26 道路
 10
-41.805291
 20
-102.076411
  0
VERTEX
  8
26 道路
 10
-42.114749
 20
-106.407440
  0
SEQEND
  0
POLYLINE
  8
26 道路
 40
0.070556
 41
0.070556
 62
252
 66
1
 10
0
 20
0
 30
0
 70
1
  0
VERTEX
  8
26 道路
 10
-32.379967
 20
-100.972595
  0
VERTEX
  8
26 道路
 10
-41.491786
 20
-97.683542
  0
VERTEX
  8
26 道路
 10
-41.746724
 20
-101.254750
  0
VERTEX
  8
26 道路
 10
-32.658161
 20
-103.414322
  0
SEQEND
  0
POLYLINE
  8
26 道路
 40
0.070556
 41
0.070556
 62
252
 66
1
 10
0
 20
0
 30
0
 70
1
  0
VERTEX
  8
26 道路
 10
-27.625275
 20
-101.648010
  0
VERTEX
  8
26 道路
 10
-26.909552
 20
-96.828636
  0
VERTEX
  8
26 道路
 10
-40.742473
 20
-91.948972
  0
VERTEX
  8
26 道路
 10
-41.399284
 20
-96.675845
  0
SEQEND
  0
POLYLINE
  8
26 道路
 40
0.070556
 41
0.070556
 62
252
 66
1
 10
0
 20
0
 30
0
 70
1
  0
VERTEX
  8
26 道路
 10
-37.472626
 20
-85.250458
  0
VERTEX
  8
26 道路
 10
-36.259342
 20
-81.125620
  0
VERTEX
  8
26 道路
 10
-40.216059
 20
-79.676259
  0
VERTEX
  8
26 道路
 10
-41.324697
 20
-86.392515
  0
VERTEX
  8
26 道路
 10
-34.516887
 20
-88.748630
  0
VERTEX
  8
26 道路
 10
-32.210037
 20
-82.608742
  0
VERTEX
  8
26 道路
 10
-35.791064
 20
-81.296842
  0
VERTEX
  8
26 道路
 10
-37.031651
 20
-85.515043
  0
SEQEND
  0
POLYLINE
  8
26 道路
 40
0.070556
 41
0.070556
 62
252
 66
1
 10
0
 20
0
 30
0
 70
1
  0
VERTEX
  8
26 道路
 10
12.634451
 20
-150.081879
  0
VERTEX
  8
26 道路
 10
11.626237
 20
-156.902695
  0
VERTEX
  8
26 道路
 10
14.357354
 20
-157.175720
  0
VERTEX
  8
26 道路
 10
15.269448
 20
-150.714403
  0
SEQEND
  0
POLYLINE
  8
26 道路
 40
0.070556
 41
0.070556
 62
252
 66
1
 10
0
 20
0
 30
0
 70
1
  0
VERTEX
  8
26 道路
 10
15.442221
 20
-149.491042
  0
VERTEX
  8
26 道路
 10
16.046322
 20
-145.212034
  0
VERTEX
  8
26 道路
 10
13.443364
 20
-144.608105
  0
VERTEX
  8
26 道路
 10
12.814802
 20
-148.860585
  0
SEQEND
  0
POLYLINE
  8
26 道路
 40
0.070556
 41
0.070556
 62
252
 66
1
 10
0
 20
0
 30
0
  0
VERTEX
  8
26 道路
 10
-14.372598
 20
-159.787291
  0
VERTEX
  8
26 道路
 10
-14.225664
 20
-151.300934
  0
VERTEX
  8
26 道路
 10
-9.658644
 20
-152.544105
  0
VERTEX
  8
26 道路
 10
-9.794640
 20
-159.787291
  0
SEQEND
  0
POLYLINE
  8
26 道路
 40
0.070556
 41
0.070556
 62
252
 66
1
 10
0
 20
0
 30
0
 70
1
  0
VERTEX
  8
26 道路
 10
-9.642538
 20
-151.688854
  0
VERTEX
  8
26 道路
 10
-9.512485
 20
-144.766580
  0
VERTEX
  8
26 道路
 10
-14.093544
 20
-143.667071
  0
VERTEX
  8
26 道路
 10
-14.210592
 20
-150.444995
  0
SEQEND
  0
POLYLINE
  8
26 道路
 40
0.070556
 41
0.070556
 62
252
 66
1
 10
0
 20
0
 30
0
  0
VERTEX
  8
26 道路
 10
11.199731
 20
-159.787291
  0
VERTEX
  8
26 道路
 10
11.500835
 20
-157.750193
  0
VERTEX
  8
26 道路
 10
14.237636
 20
-158.023391
  0
VERTEX
  8
26 道路
 10
13.988726
 20
-159.787291
  0
SEQEND
  0
POLYLINE
  8
26 道路
 40
0.070556
 41
0.070556
 62
252
 66
1
 10
0
 20
0
 30
0
  0
VERTEX
  8
26 道路
 10
2.460503
 20
-159.787291
  0
VERTEX
  8
26 道路
 10
2.941441
 20
-155.940301
  0
VERTEX
  8
26 道路
 10
10.742220
 20
-157.617729
  0
VERTEX
  8
26 道路
 10
10.421479
 20
-159.787291
  0
SEQEND
  0
POLYLINE
  8
26 道路
 40
0.070556
 41
0.070556
 62
252
 66
1
 10
0
 20
0
 30
0
  0
VERTEX
  8
26 道路
 10
-3.641920
 20
-159.787291
  0
VERTEX
  8
26 道路
 10
-3.296030
 20
-154.276137
  0
VERTEX
  8
26 道路
 10
1.990244
 20
-155.715163
  0
VERTEX
  8
26 道路
 10
1.481314
 20
-159.787291
  0
SEQEND
  0
POLYLINE
  8
26 道路
 40
0.070556
 41
0.070556
 62
252
 66
1
 10
0
 20
0
 30
0
 70
1
  0
VERTEX
  8
26 道路
 10
-3.371219
 20
-146.240574
  0
VERTEX
  8
26 道路
 10
-8.746636
 20
-144.950550
  0
VERTEX
  8
26 道路
 10
-8.876947
 20
-151.897112
  0
VERTEX
  8
26 道路
 10
-3.812453
 20
-153.275848
  0
SEQEND
  0
POLYLINE
  8
26 道路
 40
0.070556
 41
0.070556
 62
252
 66
1
 10
0
 20
0
 30
0
 70
1
  0
VERTEX
  8
26 道路
 10
-8.893139
 20
-152.752362
  0
VERTEX
  8
26 道路
 10
-8.988741
 20
-157.840800
  0
VERTEX
  8
26 道路
 10
-4.120532
 20
-158.182211
  0
VERTEX
  8
26 道路
 10
-3.865508
 20
-154.120935
  0
SEQEND
  0
POLYLINE
  8
26 道路
 40
0.070556
 41
0.070556
 62
252
 66
1
 10
0
 20
0
 30
0
  0
VERTEX
  8
26 道路
 10
-9.025346
 20
-159.787291
  0
VERTEX
  8
26 道路
 10
-8.997957
 20
-158.324150
  0
VERTEX
  8
26 道路
 10
-4.150505
 20
-158.664355
  0
VERTEX
  8
26 道路
 10
-4.220958
 20
-159.787291
  0
SEQEND
  0
POLYLINE
  8
26 道路
 40
0.070556
 41
0.070556
 62
252
 66
1
 10
0
 20
0
 30
0
 70
1
  0
VERTEX
  8
26 道路
 10
-9.409649
 20
-139.302797
  0
VERTEX
  8
26 道路
 10
-13.999320
 20
-138.237222
  0
VERTEX
  8
26 道路
 10
-14.071667
 20
-142.407709
  0
VERTEX
  8
26 道路
 10
-9.488886
 20
-143.507907
  0
SEQEND
  0
POLYLINE
  8
26 道路
 40
0.070556
 41
0.070556
 62
252
 66
1
 10
0
 20
0
 30
0
 70
1
  0
VERTEX
  8
26 道路
 10
-13.667383
 20
-94.650116
  0
VERTEX
  8
26 道路
 10
-13.539827
 20
-93.334081
  0
VERTEX
  8
26 道路
 10
-15.606639
 20
-92.684504
  0
VERTEX
  8
26 道路
 10
-16.207123
 20
-95.086096
  0
VERTEX
  8
26 道路
 10
-15.000643
 20
-95.503644
  0
SEQEND
  0
POLYLINE
  8
26 道路
 40
0.070556
 41
0.070556
 62
252
 66
1
 10
0
 20
0
 30
0
 70
1
  0
VERTEX
  8
26 道路
 10
-16.714417
 20
-94.910567
  0
VERTEX
  8
26 道路
 10
-16.117722
 20
-92.524134
  0
VERTEX
  8
26 道路
 10
-24.383075
 20
-89.925827
  0
VERTEX
  8
26 道路
 10
-25.101124
 20
-92.007367
  0
SEQEND
  0
POLYLINE
  8
26 道路
 40
0.070556
 41
0.070556
 62
252
 66
1
 10
0
 20
0
 30
0
 70
1
  0
VERTEX
  8
26 道路
 10
-25.903664
 20
-97.183311
  0
VERTEX
  8
26 道路
 10
-26.620765
 20
-102.010609
  0
VERTEX
  8
26 道路
 10
-19.570763
 20
-104.555345
  0
VERTEX
  8
26 道路
 10
-18.075410
 20
-99.944917
  0
SEQEND
  0
POLYLINE
  8
26 道路
 40
0.070556
 41
0.070556
 62
252
 66
1
 10
0
 20
0
 30
0
 70
1
  0
VERTEX
  8
26 道路
 10
-14.378972
 20
-87.397111
  0
VERTEX
  8
26 道路
 10
-22.403166
 20
-84.187295
  0
VERTEX
  8
26 道路
 10
-24.120643
 20
-89.164456
  0
VERTEX
  8
26 道路
 10
-15.881387
 20
-91.753978
  0
SEQEND
  0
POLYLINE
  8
26 道路
 40
0.070556
 41
0.070556
 62
252
 66
1
 10
0
 20
0
 30
0
 70
1
  0
VERTEX
  8
26 道路
 10
-22.495065
 20
-82.224095
  0
VERTEX
  8
26 道路
 10
-30.158814
 20
-79.350006
  0
VERTEX
  8
26 道路
 10
-31.246696
 20
-82.245627
  0
VERTEX
  8
26 道路
 10
-23.611972
 20
-85.460783
  0
SEQEND
  0
POLYLINE
  8
26 道路
 40
0.070556
 41
0.070556
 62
252
 66
1
 10
0
 20
0
 30
0
 70
1
  0
VERTEX
  8
26 道路
 10
-31.487854
 20
-82.887108
  0
VERTEX
  8
26 道路
 10
-33.785058
 20
-89.001502
  0
VERTEX
  8
26 道路
 10
-25.788769
 20
-91.769309
  0
VERTEX
  8
26 道路
 10
-23.835560
 20
-86.108982
  0
SEQEND
  0
POLYLINE
  8
26 道路
 40
0.070556
 41
0.070556
 62
252
 66
1
 10
0
 20
0
 30
0
 70
1
  0
VERTEX
  8
26 道路
 10
-15.739965
 20
-105.938043
  0
VERTEX
  8
26 道路
 10
-15.350323
 20
-102.317741
  0
VERTEX
  8
26 道路
 10
-15.960453
 20
-100.690785
  0
VERTEX
  8
26 道路
 10
-17.286134
 20
-100.223282
  0
VERTEX
  8
26 道路
 10
-18.783296
 20
-104.839567
  0
SEQEND
  0
POLYLINE
  8
26 道路
 40
0.070556
 41
0.070556
 62
252
 66
1
 10
0
 20
0
 30
0
  0
VERTEX
  8
26 道路
 10
78.317505
 20
-29.931178
  0
VERTEX
  8
26 道路
 10
78.293733
 20
-29.937035
  0
VERTEX
  8
26 道路
 10
77.420396
 20
-30.701334
  0
VERTEX
  8
26 道路
 10
76.974942
 20
-31.981540
  0
VERTEX
  8
26 道路
 10
76.974942
 20
-32.698469
  0
VERTEX
  8
26 道路
 10
77.766803
 20
-32.846953
  0
VERTEX
  8
26 道路
 10
78.305102
 20
-33.385253
  0
VERTEX
  8
26 道路
 10
78.317505
 20
-33.422115
  0
SEQEND
  0
POLYLINE
  8
26 道路
 40
0.070556
 41
0.070556
 62
252
 66
1
 10
0
 20
0
 30
0
  0
VERTEX
  8
26 道路
 10
78.317505
 20
-35.686935
  0
VERTEX
  8
26 道路
 10
78.261005
 20
-36.177520
  0
VERTEX
  8
26 道路
 10
78.211739
 20
-36.339957
  0
VERTEX
  8
26 道路
 10
78.317505
 20
-36.406793
  0
SEQEND
  0
POLYLINE
  8
26 道路
 40
0.070556
 41
0.070556
 62
252
 66
1
 10
0
 20
0
 30
0
  0
VERTEX
  8
26 道路
 10
78.317505
 20
-36.823996
  0
VERTEX
  8
26 道路
 10
78.105630
 20
-36.690154
  0
VERTEX
  8
26 道路
 10
77.710130
 20
-37.995853
  0
VERTEX
  8
26 道路
 10
77.710130
 20
-38.684015
  0
VERTEX
  8
26 道路
 10
77.533740
 20
-39.565965
  0
VERTEX
  8
26 道路
 10
77.775243
 20
-40.854094
  0
VERTEX
  8
26 道路
 10
78.317505
 20
-40.812236
  0
SEQEND
  0
POLYLINE
  8
26 道路
 40
0.070556
 41
0.070556
 62
252
 66
1
 10
0
 20
0
 30
0
  0
VERTEX
  8
26 道路
 10
78.317505
 20
-41.166050
  0
VERTEX
  8
26 道路
 10
77.782822
 20
-41.207219
  0
VERTEX
  8
26 道路
 10
77.710130
 20
-42.300010
  0
VERTEX
  8
26 道路
 10
77.707202
 20
-42.367707
  0
VERTEX
  8
26 道路
 10
78.317505
 20
-42.611965
  0
SEQEND
  0
POLYLINE
  8
26 道路
 40
0.070556
 41
0.070556
 62
252
 66
1
 10
0
 20
0
 30
0
  0
VERTEX
  8
26 道路
 10
78.317505
 20
-42.991617
  0
VERTEX
  8
26 道路
 10
77.691699
 20
-42.741502
  0
VERTEX
  8
26 道路
 10
77.621935
 20
-44.416690
  0
VERTEX
  8
26 道路
 10
77.886520
 20
-45.386835
  0
VERTEX
  8
26 道路
 10
78.317505
 20
-46.105314
  0
SEQEND
  0
POLYLINE
  8
26 道路
 40
0.070556
 41
0.070556
 62
252
 66
1
 10
0
 20
0
 30
0
  0
VERTEX
  8
26 道路
 10
78.317505
 20
-143.768874
  0
VERTEX
  8
26 道路
 10
77.977471
 20
-140.668958
  0
VERTEX
  8
26 道路
 10
77.500150
 20
-140.276559
  0
VERTEX
  8
26 道路
 10
76.827491
 20
-141.071692
  0
VERTEX
  8
26 道路
 10
74.626923
 20
-141.254800
  0
VERTEX
  8
26 道路
 10
70.417851
 20
-141.342478
  0
VERTEX
  8
26 道路
 10
69.005870
 20
-141.771395
  0
VERTEX
  8
26 道路
 10
70.159467
 20
-153.077926
  0
VERTEX
  8
26 道路
 10
78.317505
 20
-152.289855
  0
SEQEND
  0
POLYLINE
  8
26 道路
 40
0.070556
 41
0.070556
 62
252
 66
1
 10
0
 20
0
 30
0
 70
1
  0
VERTEX
  8
26 道路
 10
75.119058
 20
-140.081049
  0
VERTEX
  8
26 道路
 10
68.894075
 20
-140.676537
  0
VERTEX
  8
26 道路
 10
68.969179
 20
-141.413448
  0
VERTEX
  8
26 道路
 10
70.362040
 20
-140.990732
  0
VERTEX
  8
26 道路
 10
74.530976
 20
-140.904259
  0
SEQEND
  0
POLYLINE
  8
26 道路
 40
0.070556
 41
0.070556
 62
252
 66
1
 10
0
 20
0
 30
0
 70
1
  0
VERTEX
  8
26 道路
 10
74.988143
 20
-140.871014
  0
VERTEX
  8
26 道路
 10
76.652479
 20
-140.732348
  0
VERTEX
  8
26 道路
 10
77.227814
 20
-140.052626
  0
VERTEX
  8
26 道路
 10
77.039022
 20
-139.897252
  0
VERTEX
  8
26 道路
 10
75.583976
 20
-140.036779
  0
SEQEND
  0
POLYLINE
  8
26 道路
 40
0.070556
 41
0.070556
 62
252
 66
1
 10
0
 20
0
 30
0
 70
1
  0
VERTEX
  8
26 道路
 10
77.432798
 20
-135.706094
  0
VERTEX
  8
26 道路
 10
76.301422
 20
-125.393136
  0
VERTEX
  8
26 道路
 10
68.250700
 20
-126.094562
  0
VERTEX
  8
26 道路
 10
67.416120
 20
-127.183219
  0
VERTEX
  8
26 道路
 10
68.319085
 20
-136.664009
  0
VERTEX
  8
26 道路
 10
69.382076
 20
-137.490837
  0
VERTEX
  8
26 道路
 10
76.517775
 20
-136.808015
  0
SEQEND
  0
POLYLINE
  8
26 道路
 40
0.070556
 41
0.070556
 62
252
 66
1
 10
0
 20
0
 30
0
 70
1
  0
VERTEX
  8
26 道路
 10
75.762950
 20
-120.314344
  0
VERTEX
  8
26 道路
 10
74.657412
 20
-104.504013
  0
VERTEX
  8
26 道路
 10
59.488906
 20
-105.682587
  0
VERTEX
  8
26 道路
 10
60.952047
 20
-120.587025
  0
VERTEX
  8
26 道路
 10
62.255335
 20
-121.559065
  0
SEQEND
  0
POLYLINE
  8
26 道路
 40
0.070556
 41
0.070556
 62
252
 66
1
 10
0
 20
0
 30
0
 70
1
  0
VERTEX
  8
26 道路
 10
56.176598
 20
-127.146701
  0
VERTEX
  8
26 道路
 10
55.244693
 20
-128.451022
  0
VERTEX
  8
26 道路
 10
56.089608
 20
-137.323405
  0
VERTEX
  8
26 道路
 10
57.675740
 20
-138.610845
  0
VERTEX
  8
26 道路
 10
64.396475
 20
-137.967469
  0
VERTEX
  8
26 道路
 10
65.414852
 20
-136.759783
  0
VERTEX
  8
26 道路
 10
64.544271
 20
-127.618337
  0
VERTEX
  8
26 道路
 10
62.980187
 20
-126.553624
  0
SEQEND
  0
POLYLINE
  8
26 道路
 40
0.070556
 41
0.070556
 62
252
 66
1
 10
0
 20
0
 30
0
  0
VERTEX
  8
26 道路
 10
78.317505
 20
-152.821609
  0
VERTEX
  8
26 道路
 10
70.213211
 20
-153.604339
  0
VERTEX
  8
26 道路
 10
70.300372
 20
-154.457006
  0
VERTEX
  8
26 道路
 10
69.773958
 20
-154.511094
  0
VERTEX
  8
26 道路
 10
68.367317
 20
-140.726836
  0
VERTEX
  8
26 道路
 10
57.205826
 20
-141.794305
  0
VERTEX
  8
26 道路
 10
56.585878
 20
-142.532939
  0
VERTEX
  8
26 道路
 10
57.942048
 20
-156.775570
  0
VERTEX
  8
26 道路
 10
45.842452
 20
-158.038894
  0
VERTEX
  8
26 道路
 10
46.013846
 20
-159.787291
  0
SEQEND
  0
POLYLINE
  8
26 道路
 40
0.070556
 41
0.070556
 62
252
 66
1
 10
0
 20
0
 30
0
 70
1
  0
VERTEX
  8
26 道路
 10
54.891052
 20
-155.330343
  0
VERTEX
  8
26 道路
 10
53.695080
 20
-142.771513
  0
VERTEX
  8
26 道路
 10
53.064451
 20
-142.190322
  0
VERTEX
  8
26 道路
 10
45.135858
 20
-142.948936
  0
VERTEX
  8
26 道路
 10
44.458893
 20
-143.913914
  0
VERTEX
  8
26 道路
 10
45.671574
 20
-156.292737
  0
SEQEND
  0
POLYLINE
  8
26 道路
 40
0.070556
 41
0.070556
 62
252
 66
1
 10
0
 20
0
 30
0
 70
1
  0
VERTEX
  8
26 道路
 10
53.235673
 20
-137.948177
  0
VERTEX
  8
26 道路
 10
52.348900
 20
-128.636886
  0
VERTEX
  8
26 道路
 10
50.926239
 20
-127.604385
  0
VERTEX
  8
26 道路
 10
44.000348
 20
-128.207625
  0
VERTEX
  8
26 道路
 10
43.046912
 20
-129.500233
  0
VERTEX
  8
26 道路
 10
43.951083
 20
-138.730735
  0
VERTEX
  8
26 道路
 10
45.408712
 20
-139.783907
  0
VERTEX
  8
26 道路
 10
52.210406
 20
-139.133297
  0
SEQEND
  0
POLYLINE
  8
26 道路
 40
0.070556
 41
0.070556
 62
252
 66
1
 10
0
 20
0
 30
0
  0
VERTEX
  8
26 道路
 10
15.306656
 20
-159.787291
  0
VERTEX
  8
26 道路
 10
17.322394
 20
-145.507970
  0
VERTEX
  8
26 道路
 10
22.343997
 20
-146.673797
  0
VERTEX
  8
26 道路
 10
21.069820
 20
-159.787291
  0
SEQEND
  0
POLYLINE
  8
26 道路
 40
0.070556
 41
0.070556
 62
252
 66
1
 10
0
 20
0
 30
0
 70
1
  0
VERTEX
  8
26 道路
 10
17.430570
 20
-138.203804
  0
VERTEX
  8
26 道路
 10
6.549512
 20
-135.331266
  0
VERTEX
  8
26 道路
 10
4.952873
 20
-141.198128
  0
VERTEX
  8
26 道路
 10
16.289203
 20
-143.829853
  0
SEQEND
  0
POLYLINE
  8
26 道路
 40
0.070556
 41
0.070556
 62
252
 66
1
 10
0
 20
0
 30
0
 70
1
  0
VERTEX
  8
26 道路
 10
4.614045
 20
-142.557916
  0
VERTEX
  8
26 道路
 10
4.087976
 20
-146.766126
  0
VERTEX
  8
26 道路
 10
12.063422
 20
-148.680233
  0
VERTEX
  8
26 道路
 10
12.691123
 20
-144.433437
  0
SEQEND
  0
POLYLINE
  8
26 道路
 40
0.070556
 41
0.070556
 62
252
 66
1
 10
0
 20
0
 30
0
 70
1
  0
VERTEX
  8
26 道路
 10
3.934496
 20
-147.993966
  0
VERTEX
  8
26 道路
 10
3.046173
 20
-155.102793
  0
VERTEX
  8
26 道路
 10
10.865211
 20
-156.784355
  0
VERTEX
  8
26 道路
 10
11.882726
 20
-149.901527
  0
SEQEND
  0
POLYLINE
  8
26 道路
 40
0.070556
 41
0.070556
 62
252
 66
1
 10
0
 20
0
 30
0
 70
1
  0
VERTEX
  8
26 道路
 10
3.662332
 20
-142.337256
  0
VERTEX
  8
26 道路
 10
-2.457919
 20
-140.916490
  0
VERTEX
  8
26 道路
 10
-2.722245
 20
-145.131590
  0
VERTEX
  8
26 道路
 10
3.137640
 20
-146.538060
  0
SEQEND
  0
POLYLINE
  8
26 道路
 40
0.070556
 41
0.070556
 62
252
 66
1
 10
0
 20
0
 30
0
 70
1
  0
VERTEX
  8
26 道路
 10
-2.800450
 20
-146.377517
  0
VERTEX
  8
26 道路
 10
-3.242975
 20
-153.431050
  0
VERTEX
  8
26 道路
 10
2.094114
 20
-154.883856
  0
VERTEX
  8
26 道路
 10
2.984161
 20
-147.765727
  0
SEQEND
  0
POLYLINE
  8
26 道路
 40
0.070556
 41
0.070556
 62
252
 66
1
 10
0
 20
0
 30
0
 70
1
  0
VERTEX
  8
26 道路
 10
-3.028775
 20
-140.784025
  0
VERTEX
  8
26 道路
 10
-8.643627
 20
-139.480565
  0
VERTEX
  8
26 道路
 10
-8.722778
 20
-143.691531
  0
VERTEX
  8
26 道路
 10
-3.292929
 20
-144.994819
  0
SEQEND
  0
POLYLINE
  8
26 道路
 40
0.070556
 41
0.070556
 62
252
 66
1
 10
0
 20
0
 30
0
 70
1
  0
VERTEX
  8
26 道路
 10
-7.510528
 20
-131.646024
  0
VERTEX
  8
26 道路
 10
-13.183688
 20
-129.882641
  0
VERTEX
  8
26 道路
 10
-13.929470
 20
-136.814905
  0
VERTEX
  8
26 道路
 10
-9.165820
 20
-137.920788
  0
SEQEND
  0
POLYLINE
  8
26 道路
 40
0.070556
 41
0.070556
 62
252
 66
1
 10
0
 20
0
 30
0
 70
1
  0
VERTEX
  8
26 道路
 10
-13.017031
 20
-87.941956
  0
VERTEX
  8
26 道路
 10
-13.887095
 20
-87.593483
  0
VERTEX
  8
26 道路
 10
-15.376419
 20
-91.912626
  0
VERTEX
  8
26 道路
 10
-13.460331
 20
-92.515005
  0
SEQEND
  0
POLYLINE
  8
26 道路
 40
0.070556
 41
0.070556
 62
252
 66
1
 10
0
 20
0
 30
0
 70
1
  0
VERTEX
  8
26 道路
 10
-12.934779
 20
-87.092735
  0
VERTEX
  8
26 道路
 10
-12.371933
 20
-81.284095
  0
VERTEX
  8
26 道路
 10
-20.439450
 20
-78.495962
  0
VERTEX
  8
26 道路
 10
-22.135653
 20
-83.412488
  0
SEQEND
  0
POLYLINE
  8
26 道路
 40
0.070556
 41
0.070556
 62
252
 66
1
 10
0
 20
0
 30
0
 70
1
  0
VERTEX
  8
26 道路
 10
-19.122037
 20
-77.677919
  0
VERTEX
  8
26 道路
 10
-17.961205
 20
-74.389037
  0
VERTEX
  8
26 道路
 10
-27.635524
 20
-71.061571
  0
VERTEX
  8
26 道路
 10
-28.417480
 20
-74.465519
  0
SEQEND
  0
POLYLINE
  8
26 道路
 40
0.070556
 41
0.070556
 62
252
 66
1
 10
0
 20
0
 30
0
 70
1
  0
VERTEX
  8
26 道路
 10
-28.757857
 20
-75.621528
  0
VERTEX
  8
26 道路
 10
-29.915331
 20
-78.703013
  0
VERTEX
  8
26 道路
 10
-22.269496
 20
-81.569695
  0
VERTEX
  8
26 道路
 10
-21.126923
 20
-78.258421
  0
SEQEND
  0
POLYLINE
  8
26 道路
 40
0.070556
 41
0.070556
 62
252
 66
1
 10
0
 20
0
 30
0
 70
1
  0
VERTEX
  8
26 道路
 10
-29.489772
 20
-75.368656
  0
VERTEX
  8
26 道路
 10
-34.202004
 20
-73.740666
  0
VERTEX
  8
26 道路
 10
-36.491370
 20
-80.302581
  0
VERTEX
  8
26 道路
 10
-31.966295
 20
-81.960371
  0
SEQEND
  0
POLYLINE
  8
26 道路
 40
0.070556
 41
0.070556
 62
252
 66
1
 10
0
 20
0
 30
0
 70
1
  0
VERTEX
  8
26 道路
 10
-34.756668
 20
-73.548773
  0
VERTEX
  8
26 道路
 10
-38.964534
 20
-72.094245
  0
VERTEX
  8
26 道路
 10
-40.101336
 20
-78.980001
  0
VERTEX
  8
26 道路
 10
-37.042417
 20
-80.100697
  0
SEQEND
  0
POLYLINE
  8
26 道路
 40
0.070556
 41
0.070556
 62
252
 66
1
 10
0
 20
0
 30
0
 70
1
  0
VERTEX
  8
26 道路
 10
-48.541098
 20
-78.481148
  0
VERTEX
  8
26 道路
 10
-49.059072
 20
-81.848750
  0
VERTEX
  8
26 道路
 10
-47.698423
 20
-84.185917
  0
VERTEX
  8
26 道路
 10
-42.344194
 20
-86.038701
  0
VERTEX
  8
26 道路
 10
-41.254503
 20
-79.438201
  0
SEQEND
  0
POLYLINE
  8
26 道路
 40
0.070556
 41
0.070556
 62
252
 66
1
 10
0
 20
0
 30
0
 70
1
  0
VERTEX
  8
26 道路
 10
-49.354577
 20
-90.663771
  0
VERTEX
  8
26 道路
 10
-49.385841
 20
-93.792971
  0
VERTEX
  8
26 道路
 10
-42.406895
 20
-96.312213
  0
VERTEX
  8
26 道路
 10
-41.751634
 20
-91.592919
  0
VERTEX
  8
26 道路
 10
-47.575260
 20
-89.538768
  0
SEQEND
  0
POLYLINE
  8
26 道路
 40
0.070556
 41
0.070556
 62
252
 66
1
 10
0
 20
0
 30
0
 70
1
  0
VERTEX
  8
26 道路
 10
-49.396521
 20
-94.830296
  0
VERTEX
  8
26 道路
 10
-49.442772
 20
-99.426082
  0
VERTEX
  8
26 道路
 10
-42.787494
 20
-101.007735
  0
VERTEX
  8
26 道路
 10
-42.523598
 20
-97.311125
  0
SEQEND
  0
POLYLINE
  8
26 道路
 40
0.070556
 41
0.070556
 62
252
 66
1
 10
0
 20
0
 30
0
 70
1
  0
VERTEX
  8
26 道路
 10
-49.451040
 20
-100.259456
  0
VERTEX
  8
26 道路
 10
-49.502889
 20
-105.366670
  0
VERTEX
  8
26 道路
 10
-43.165337
 20
-106.298574
  0
VERTEX
  8
26 道路
 10
-42.846147
 20
-101.829224
  0
SEQEND
  0
POLYLINE
  8
26 道路
 40
0.070556
 41
0.070556
 62
252
 66
1
 10
0
 20
0
 30
0
 70
1
  0
VERTEX
  8
26 道路
 10
-49.513310
 20
-106.423460
  0
VERTEX
  8
26 道路
 10
-49.649995
 20
-119.987919
  0
VERTEX
  8
26 道路
 10
-42.522392
 20
-121.202668
  0
VERTEX
  8
26 道路
 10
-43.181702
 20
-107.354675
  0
SEQEND
  0
POLYLINE
  8
26 道路
 40
0.070556
 41
0.070556
 62
252
 66
1
 10
0
 20
0
 30
0
 70
1
  0
VERTEX
  8
26 道路
 10
-49.660761
 20
-121.044192
  0
VERTEX
  8
26 道路
 10
-49.720620
 20
-126.950157
  0
VERTEX
  8
26 道路
 10
-43.558081
 20
-128.210553
  0
VERTEX
  8
26 道路
 10
-43.264212
 20
-125.320272
  0
VERTEX
  8
26 道路
 10
-48.261699
 20
-124.497233
  0
VERTEX
  8
26 道路
 10
-48.155159
 20
-121.301198
  0
SEQEND
  0
POLYLINE
  8
26 道路
 40
0.070556
 41
0.070556
 62
252
 66
1
 10
0
 20
0
 30
0
 70
1
  0
VERTEX
  8
26 道路
 10
-49.731128
 20
-128.030546
  0
VERTEX
  8
26 道路
 10
-49.789092
 20
-133.762532
  0
VERTEX
  8
26 道路
 10
-40.280482
 20
-135.474410
  0
VERTEX
  8
26 道路
 10
-40.808447
 20
-129.855596
  0
SEQEND
  0
POLYLINE
  8
26 道路
 40
0.070556
 41
0.070556
 62
252
 66
1
 10
0
 20
0
 30
0
 70
1
  0
VERTEX
  8
26 道路
 10
-49.803561
 20
-135.192083
  0
VERTEX
  8
26 道路
 10
-49.849037
 20
-139.707770
  0
VERTEX
  8
26 道路
 10
-40.598294
 20
-141.786554
  0
VERTEX
  8
26 道路
 10
-40.252921
 20
-136.911196
  0
SEQEND
  0
POLYLINE
  8
26 道路
 40
0.070556
 41
0.070556
 62
252
 66
1
 10
0
 20
0
 30
0
 70
1
  0
VERTEX
  8
26 道路
 10
-49.859114
 20
-140.699103
  0
VERTEX
  8
26 道路
 10
-49.960056
 20
-150.685636
  0
VERTEX
  8
26 道路
 10
-41.267336
 20
-151.238750
  0
VERTEX
  8
26 道路
 10
-40.667369
 20
-142.764450
  0
SEQEND
  0
POLYLINE
  8
26 道路
 40
0.070556
 41
0.070556
 62
252
 66
1
 10
0
 20
0
 30
0
 70
1
  0
VERTEX
  8
26 道路
 10
-49.968238
 20
-151.515565
  0
VERTEX
  8
26 道路
 10
-50.010527
 20
-155.716541
  0
VERTEX
  8
26 道路
 10
-41.622097
 20
-156.250189
  0
VERTEX
  8
26 道路
 10
-41.325903
 20
-152.065061
  0
SEQEND
  0
POLYLINE
  8
26 道路
 40
0.070556
 41
0.070556
 62
252
 66
1
 10
0
 20
0
 30
0
  0
VERTEX
  8
26 道路
 10
-50.051782
 20
-159.787291
  0
VERTEX
  8
26 道路
 10
-50.021465
 20
-156.781599
  0
VERTEX
  8
26 道路
 10
-41.697201
 20
-157.311286
  0
VERTEX
  8
26 道路
 10
-41.872557
 20
-159.787291
  0
SEQEND
  0
POLYLINE
  8
26 道路
 40
0.070556
 41
0.070556
 62
252
 66
1
 10
0
 20
0
 30
0
 70
1
  0
VERTEX
  8
26 道路
 10
-27.771951
 20
-102.636242
  0
VERTEX
  8
26 道路
 10
-31.683106
 20
-101.224261
  0
VERTEX
  8
26 道路
 10
-32.363603
 20
-107.196888
  0
VERTEX
  8
26 道路
 10
-28.566481
 20
-107.984959
  0
SEQEND
  0
POLYLINE
  8
26 道路
 40
0.070556
 41
0.070556
 62
252
 66
1
 10
0
 20
0
 30
0
 70
1
  0
VERTEX
  8
26 道路
 10
-28.388541
 20
-113.913833
  0
VERTEX
  8
26 道路
 10
-28.209825
 20
-118.524606
  0
VERTEX
  8
26 道路
 10
-26.661331
 20
-118.577488
  0
VERTEX
  8
26 道路
 10
-26.801031
 20
-114.178418
  0
VERTEX
  8
26 道路
 10
-25.920459
 20
-109.775903
  0
VERTEX
  8
26 道路
 10
-27.699001
 20
-109.271021
  0
SEQEND
  0
POLYLINE
  8
26 道路
 40
0.070556
 41
0.070556
 62
252
 66
1
 10
0
 20
0
 30
0
 70
1
  0
VERTEX
  8
26 道路
 10
-28.179164
 20
-119.319050
  0
VERTEX
  8
26 道路
 10
-27.994592
 20
-124.079341
  0
VERTEX
  8
26 道路
 10
-26.472453
 20
-124.532890
  0
VERTEX
  8
26 道路
 10
-26.636182
 20
-119.372622
  0
SEQEND
  0
POLYLINE
  8
26 道路
 40
0.070556
 41
0.070556
 62
252
 66
1
 10
0
 20
0
 30
0
  0
VERTEX
  8
26 道路
 10
78.317505
 20
-27.494791
  0
VERTEX
  8
26 道路
 10
76.303144
 20
-28.762939
  0
VERTEX
  8
26 道路
 10
75.929005
 20
-29.118475
  0
VERTEX
  8
26 道路
 10
77.245040
 20
-30.385934
  0
VERTEX
  8
26 道路
 10
78.125611
 20
-29.615605
  0
VERTEX
  8
26 道路
 10
78.166953
 20
-29.604926
  0
VERTEX
  8
26 道路
 10
78.317505
 20
-29.567374
  0
SEQEND
  0
POLYLINE
  8
26 道路
 40
0.070556
 41
0.070556
 62
252
 66
1
 10
0
 20
0
 30
0
 70
1
  0
VERTEX
  8
26 道路
 10
75.672688
 20
-29.361700
  0
VERTEX
  8
26 道路
 10
74.760766
 20
-30.227975
  0
VERTEX
  8
26 道路
 10
73.023048
 20
-31.826854
  0
VERTEX
  8
26 道路
 10
74.211442
 20
-32.488144
  0
VERTEX
  8
26 道路
 10
75.614121
 20
-32.716211
  0
VERTEX
  8
26 道路
 10
76.622162
 20
-32.663328
  0
VERTEX
  8
26 道路
 10
76.622162
 20
-31.921939
  0
VERTEX
  8
26 道路
 10
77.075195
 20
-30.619857
  0
VERTEX
  8
26 道路
 10
77.029031
 20
-30.667744
  0
SEQEND
  0
POLYLINE
  8
26 道路
 40
0.070556
 41
0.070556
 62
252
 66
1
 10
0
 20
0
 30
0
  0
VERTEX
  8
26 道路
 10
78.317505
 20
-48.183926
  0
VERTEX
  8
26 道路
 10
77.092765
 20
-47.503515
  0
VERTEX
  8
26 道路
 10
76.475400
 20
-46.797955
  0
VERTEX
  8
26 道路
 10
76.210815
 20
-46.180590
  0
VERTEX
  8
26 道路
 10
76.299010
 20
-40.447915
  0
VERTEX
  8
26 道路
 10
76.828180
 20
-38.948600
  0
VERTEX
  8
26 道路
 10
77.344776
 20
-38.018418
  0
VERTEX
  8
26 道路
 10
77.335474
 20
-38.015490
 42
-0.001188
  0
VERTEX
  8
26 道路
 10
77.916837
 20
-36.106378
 42
0.000115
  0
VERTEX
  8
26 道路
 10
78.148005
 20
-34.028628
  0
VERTEX
  8
26 道路
 10
77.996764
 20
-33.575768
  0
VERTEX
  8
26 道路
 10
77.594547
 20
-33.173550
  0
VERTEX
  8
26 道路
 10
76.728272
 20
-33.011113
  0
VERTEX
  8
26 道路
 10
75.594828
 20
-33.066579
  0
VERTEX
  8
26 道路
 10
74.094308
 20
-32.826799
  0
VERTEX
  8
26 道路
 10
72.773277
 20
-32.091611
  0
VERTEX
  8
26 道路
 10
71.385240
 20
-34.135599
  0
VERTEX
  8
26 道路
 10
70.000992
 20
-36.519448
  0
VERTEX
  8
26 道路
 10
69.467687
 20
-38.473002
  0
VERTEX
  8
26 道路
 10
69.856297
 20
-39.556147
  0
VERTEX
  8
26 道路
 10
70.155161
 20
-40.871320
  0
VERTEX
  8
26 道路
 10
70.095216
 20
-43.148715
  0
VERTEX
  8
26 道路
 10
70.089531
 20
-43.169385
  0
VERTEX
  8
26 道路
 10
69.908662
 20
-43.830159
  0
VERTEX
  8
26 道路
 10
69.513852
 20
-44.916060
  0
VERTEX
  8
26 道路
 10
69.700577
 20
-45.988008
  0
VERTEX
  8
26 道路
 10
70.523271
 20
-48.008397
  0
VERTEX
  8
26 道路
 10
72.251514
 20
-49.811571
  0
VERTEX
  8
26 道路
 10
73.745145
 20
-50.782405
  0
VERTEX
  8
26 道路
 10
75.939857
 20
-51.464711
  0
VERTEX
  8
26 道路
 10
78.317505
 20
-51.974588
  0
SEQEND
  0
POLYLINE
  8
26 道路
 40
0.070556
 41
0.070556
 62
252
 66
1
 10
0
 20
0
 30
0
  0
VERTEX
  8
26 道路
 10
78.317505
 20
-52.623821
  0
VERTEX
  8
26 道路
 10
75.779142
 20
-52.078114
  0
VERTEX
  8
26 道路
 10
73.472981
 20
-51.362908
  0
VERTEX
  8
26 道路
 10
73.386508
 20
-51.306752
  0
VERTEX
  8
26 道路
 10
73.563243
 20
-54.225283
  0
VERTEX
  8
26 道路
 10
78.317505
 20
-53.990499
  0
SEQEND
  0
POLYLINE
  8
26 道路
 40
0.070556
 41
0.070556
 62
252
 66
1
 10
0
 20
0
 30
0
 70
1
  0
VERTEX
  8
26 道路
 10
72.724357
 20
-50.876113
  0
VERTEX
  8
26 道路
 10
71.844129
 20
-50.303879
  0
VERTEX
  8
26 道路
 10
70.183927
 20
-48.571674
  0
VERTEX
  8
26 道路
 10
69.979976
 20
-49.427958
  0
VERTEX
  8
26 道路
 10
70.392701
 20
-54.381864
  0
VERTEX
  8
26 道路
 10
72.929169
 20
-54.256806
  0
SEQEND
  0
POLYLINE
  8
26 道路
 40
0.070556
 41
0.070556
 62
252
 66
1
 10
0
 20
0
 30
0
 70
1
  0
VERTEX
  8
26 道路
 10
69.308868
 20
-39.072969
  0
VERTEX
  8
26 道路
 10
68.934383
 20
-41.468703
  0
VERTEX
  8
26 道路
 10
69.392584
 20
-44.217735
  0
VERTEX
  8
26 道路
 10
69.572764
 20
-43.723360
 42
0.000119
  0
VERTEX
  8
26 道路
 10
69.743641
 20
-43.097382
  0
VERTEX
  8
26 道路
 10
69.801347
 20
-40.906460
  0
VERTEX
  8
26 道路
 10
69.518331
 20
-39.654849
  0
SEQEND
  0
POLYLINE
  8
26 道路
 40
0.070556
 41
0.070556
 62
252
 66
1
 10
0
 20
0
 30
0
 70
1
  0
VERTEX
  8
26 道路
 10
68.767984
 20
-44.332974
  0
VERTEX
  8
26 道路
 10
68.362149
 20
-41.898137
  0
VERTEX
  8
26 道路
 10
66.835273
 20
-42.005625
  0
VERTEX
  8
26 道路
 10
67.814031
 20
-54.509161
  0
VERTEX
  8
26 道路
 10
70.040266
 20
-54.399434
  0
VERTEX
  8
26 道路
 10
69.623751
 20
-49.401086
  0
VERTEX
  8
26 道路
 10
69.630297
 20
-49.373697
  0
VERTEX
  8
26 道路
 10
69.911935
 20
-48.190988
  0
VERTEX
  8
26 道路
 10
69.086658
 20
-46.164226
  0
SEQEND
  0
POLYLINE
  8
26 道路
 40
0.070556
 41
0.070556
 62
252
 66
1
 10
0
 20
0
 30
0
 70
1
  0
VERTEX
  8
26 道路
 10
66.682999
 20
-49.129438
  0
VERTEX
  8
26 道路
 10
62.741785
 20
-49.455346
  0
VERTEX
  8
26 道路
 10
63.152099
 20
-54.739467
  0
VERTEX
  8
26 道路
 10
67.106404
 20
-54.544129
  0
SEQEND
  0
POLYLINE
  8
26 道路
 40
0.070556
 41
0.070556
 62
252
 66
1
 10
0
 20
0
 30
0
 70
1
  0
VERTEX
  8
26 道路
 10
66.633562
 20
-48.501738
  0
VERTEX
  8
26 道路
 10
66.129024
 20
-42.055235
  0
VERTEX
  8
26 道路
 10
62.188672
 20
-42.333428
  0
VERTEX
  8
26 道路
 10
62.693209
 20
-48.827301
  0
SEQEND
  0
POLYLINE
  8
26 道路
 40
0.070556
 41
0.070556
 62
252
 66
1
 10
0
 20
0
 30
0
 70
1
  0
VERTEX
  8
26 道路
 10
61.996262
 20
-49.517014
  0
VERTEX
  8
26 道路
 10
57.171031
 20
-49.916303
  0
VERTEX
  8
26 道路
 10
57.532079
 20
-55.017143
  0
VERTEX
  8
26 道路
 10
62.404508
 20
-54.776330
  0
SEQEND
  0
POLYLINE
  8
26 道路
 40
0.070556
 41
0.070556
 62
252
 66
1
 10
0
 20
0
 30
0
 70
1
  0
VERTEX
  8
26 道路
 10
61.947341
 20
-48.888969
  0
VERTEX
  8
26 道路
 10
61.461924
 20
-42.635737
  0
VERTEX
  8
26 道路
 10
56.896110
 20
-46.033139
  0
VERTEX
  8
26 道路
 10
57.126244
 20
-49.287741
  0
SEQEND
  0
POLYLINE
  8
26 道路
 40
0.070556
 41
0.070556
 62
252
 66
1
 10
0
 20
0
 30
0
 70
1
  0
VERTEX
  8
26 道路
 10
52.287577
 20
-53.246181
  0
VERTEX
  8
26 道路
 10
52.418147
 20
-55.507039
  0
VERTEX
  8
26 道路
 10
56.850290
 20
-55.061930
  0
VERTEX
  8
26 道路
 10
56.693882
 20
-52.850165
  0
SEQEND
  0
POLYLINE
  8
26 道路
 40
0.070556
 41
0.070556
 62
252
 66
1
 10
0
 20
0
 30
0
 70
1
  0
VERTEX
  8
26 道路
 10
56.648579
 20
-52.212474
  0
VERTEX
  8
26 道路
 10
56.490276
 20
-49.972286
  0
VERTEX
  8
26 道路
 10
52.119628
 20
-50.333507
  0
VERTEX
  8
26 道路
 10
52.251059
 20
-52.607973
  0
SEQEND
  0
POLYLINE
  8
26 道路
 40
0.070556
 41
0.070556
 62
252
 66
1
 10
0
 20
0
 30
0
 70
1
  0
VERTEX
  8
26 道路
 10
51.472807
 20
-50.387250
  0
VERTEX
  8
26 道路
 10
44.754484
 20
-50.942603
  0
VERTEX
  8
26 道路
 10
39.975073
 20
-56.756755
  0
VERTEX
  8
26 道路
 10
51.771843
 20
-55.571980
  0
SEQEND
  0
POLYLINE
  8
26 道路
 40
0.070556
 41
0.070556
 62
252
 66
1
 10
0
 20
0
 30
0
  0
VERTEX
  8
26 道路
 10
78.317505
 20
-76.124687
  0
VERTEX
  8
26 道路
 10
69.449084
 20
-77.048840
  0
VERTEX
  8
26 道路
 10
69.860775
 20
-80.576640
  0
VERTEX
  8
26 道路
 10
71.051408
 20
-80.488445
  0
VERTEX
  8
26 道路
 10
71.271895
 20
-83.531173
  0
VERTEX
  8
26 道路
 10
66.979624
 20
-83.986962
  0
VERTEX
  8
26 道路
 10
67.479510
 20
-89.704823
  0
VERTEX
  8
26 道路
 10
74.623305
 20
-89.131555
  0
VERTEX
  8
26 道路
 10
74.505655
 20
-87.867542
  0
VERTEX
  8
26 道路
 10
77.445545
 20
-87.588143
  0
VERTEX
  8
26 道路
 10
77.710130
 20
-88.866970
  0
VERTEX
  8
26 道路
 10
78.317505
 20
-88.817016
  0
SEQEND
  0
POLYLINE
  8
26 道路
 40
0.070556
 41
0.070556
 62
252
 66
1
 10
0
 20
0
 30
0
  0
VERTEX
  8
26 道路
 10
78.317505
 20
-77.207832
  0
VERTEX
  8
26 道路
 10
77.577838
 20
-77.313425
  0
VERTEX
  8
26 道路
 10
77.886520
 20
-79.915178
  0
VERTEX
  8
26 道路
 10
78.317505
 20
-79.872114
  0
SEQEND
  0
POLYLINE
  8
26 道路
 40
0.070556
 41
0.070556
 62
252
 66
1
 10
0
 20
0
 30
0
  0
VERTEX
  8
26 道路
 10
78.317505
 20
-56.102872
  0
VERTEX
  8
26 道路
 10
56.984305
 20
-57.156389
  0
VERTEX
  8
26 道路
 10
38.698312
 20
-59.016580
  0
VERTEX
  8
26 道路
 10
41.109205
 20
-86.749773
  0
VERTEX
  8
26 道路
 10
37.757795
 20
-87.455333
  0
VERTEX
  8
26 道路
 10
38.519855
 20
-102.788689
  0
VERTEX
  8
26 道路
 10
38.344154
 20
-106.385219
  0
VERTEX
  8
26 道路
 10
52.873247
 20
-105.431094
  0
VERTEX
  8
26 道路
 10
52.486877
 20
-99.555963
  0
VERTEX
  8
26 道路
 10
53.014841
 20
-99.521167
  0
VERTEX
  8
26 道路
 10
53.401383
 20
-105.396298
  0
VERTEX
  8
26 道路
 10
58.269506
 20
-105.076419
  0
VERTEX
  8
26 道路
 10
76.045794
 20
-103.677701
  0
VERTEX
  8
26 道路
 10
77.627275
 20
-104.630448
  0
VERTEX
  8
26 道路
 10
77.815206
 20
-107.314367
  0
VERTEX
  8
26 道路
 10
78.317505
 20
-107.260279
  0
SEQEND
  0
POLYLINE
  8
26 道路
 40
0.070556
 41
0.070556
 62
252
 66
1
 10
0
 20
0
 30
0
  0
VERTEX
  8
26 道路
 10
78.317505
 20
-89.620589
  0
VERTEX
  8
26 道路
 10
76.900528
 20
-89.757705
  0
VERTEX
  8
26 道路
 10
76.330878
 20
-90.213494
  0
VERTEX
  8
26 道路
 10
76.032186
 20
-91.309041
  0
VERTEX
  8
26 道路
 10
76.205648
 20
-94.171589
  0
VERTEX
  8
26 道路
 10
75.535917
 20
-95.139150
  0
VERTEX
  8
26 道路
 10
61.453656
 20
-96.201797
  0
VERTEX
  8
26 道路
 10
63.458025
 20
-94.408441
  0
VERTEX
  8
26 道路
 10
62.386594
 20
-80.302753
  0
VERTEX
  8
26 道路
 10
59.761759
 20
-78.494584
  0
VERTEX
  8
26 道路
 10
60.431145
 20
-73.977346
  0
VERTEX
  8
26 道路
 10
70.104690
 20
-73.067490
  0
VERTEX
  8
26 道路
 10
70.213555
 20
-75.410687
  0
VERTEX
  8
26 道路
 10
70.565991
 20
-75.394150
  0
VERTEX
  8
26 道路
 10
70.439900
 20
-72.681465
  0
VERTEX
  8
26 道路
 10
70.255930
 20
-72.698863
  0
VERTEX
  8
26 道路
 10
61.095708
 20
-73.560659
  0
VERTEX
  8
26 道路
 10
61.039897
 20
-71.834828
  0
VERTEX
  8
26 道路
 10
60.362587
 20
-70.295549
  0
VERTEX
  8
26 道路
 10
59.314066
 20
-69.431858
  0
VERTEX
  8
26 道路
 10
57.824914
 20
-68.716996
 42
0.001591
  0
VERTEX
  8
26 道路
 10
56.393123
 20
-68.238470
  0
VERTEX
  8
26 道路
 10
56.366079
 20
-68.229340
  0
VERTEX
  8
26 道路
 10
56.337485
 20
-68.229340
  0
VERTEX
  8
26 道路
 10
54.609586
 20
-68.229340
  0
VERTEX
  8
26 道路
 10
53.235501
 20
-68.587805
 42
0.001279
  0
VERTEX
  8
26 道路
 10
51.982340
 20
-69.063920
 42
0.005393
  0
VERTEX
  8
26 道路
 10
51.323445
 20
-69.488374
 42
0.000495
  0
VERTEX
  8
26 道路
 10
50.773104
 20
-69.845617
  0
VERTEX
  8
26 道路
 10
50.748643
 20
-69.861292
  0
VERTEX
  8
26 道路
 10
50.053074
 20
-70.746343
  0
VERTEX
  8
26 道路
 10
49.945414
 20
-71.662227
  0
VERTEX
  8
26 道路
 10
48.737212
 20
-68.979859
  0
VERTEX
  8
26 道路
 10
48.415438
 20
-69.124898
  0
VERTEX
  8
26 道路
 10
49.876340
 20
-72.367787
  0
VERTEX
  8
26 道路
 10
50.695588
 20
-77.020590
 42
0.006003
  0
VERTEX
  8
26 道路
 10
50.971316
 20
-77.691866
 42
0.000694
  0
VERTEX
  8
26 道路
 10
51.294350
 20
-78.469090
  0
VERTEX
  8
26 道路
 10
51.323289
 20
-78.537992
  0
VERTEX
  8
26 道路
 10
52.745433
 20
-79.094551
 42
0.000340
  0
VERTEX
  8
26 道路
 10
55.496359
 20
-79.932575
  0
VERTEX
  8
26 道路
 10
56.788967
 20
-79.808896
  0
VERTEX
  8
26 道路
 10
59.547128
 20
-78.775016
  0
VERTEX
  8
26 道路
 10
62.047594
 20
-80.497747
  0
VERTEX
  8
26 道路
 10
62.495459
 20
-86.394582
  0
VERTEX
  8
26 道路
 10
61.533583
 20
-86.630056
  0
VERTEX
  8
26 道路
 10
61.480528
 20
-86.596466
  0
VERTEX
  8
26 道路
 10
61.445043
 20
-86.651760
  0
VERTEX
  8
26 道路
 10
57.177576
 20
-87.696147
  0
VERTEX
  8
26 道路
 10
57.261293
 20
-88.038936
  0
VERTEX
  8
26 道路
 10
61.169778
 20
-87.082572
  0
VERTEX
  8
26 道路
 10
56.894388
 20
-93.769889
  0
VERTEX
  8
26 道路
 10
57.191701
 20
-93.959715
  0
VERTEX
  8
26 道路
 10
58.113270
 20
-92.517933
  0
VERTEX
  8
26 道路
 10
59.593637
 20
-92.627488
 42
0.000123
  0
VERTEX
  8
26 道路
 10
61.547019
 20
-93.317200
 42
0.000108
  0
VERTEX
  8
26 道路
 10
62.993623
 20
-94.350391
  0
VERTEX
  8
26 道路
 10
60.923452
 20
-96.202830
  0
VERTEX
  8
26 道路
 10
60.956181
 20
-96.239349
  0
VERTEX
  8
26 道路
 10
56.964324
 20
-96.540452
  0
VERTEX
  8
26 道路
 10
57.004115
 20
-97.068416
  0
VERTEX
  8
26 道路
 10
75.827374
 20
-95.647822
  0
VERTEX
  8
26 道路
 10
76.686242
 20
-94.406719
  0
VERTEX
  8
26 道路
 10
78.317505
 20
-94.274082
  0
SEQEND
  0
POLYLINE
  8
26 道路
 40
0.070556
 41
0.070556
 62
252
 66
1
 10
0
 20
0
 30
0
 70
1
  0
VERTEX
  8
26 道路
 10
38.224953
 20
-65.330791
  0
VERTEX
  8
26 道路
 10
34.288907
 20
-65.641713
  0
VERTEX
  8
26 道路
 10
34.876644
 20
-71.168714
  0
VERTEX
  8
26 道路
 10
38.740515
 20
-70.927039
  0
SEQEND
  0
POLYLINE
  8
26 道路
 40
0.070556
 41
0.070556
 62
252
 66
1
 10
0
 20
0
 30
0
 70
1
  0
VERTEX
  8
26 道路
 10
62.522503
 20
-86.751151
  0
VERTEX
  8
26 道路
 10
61.666220
 20
-86.960959
  0
VERTEX
  8
26 道路
 10
58.329279
 20
-92.180312
  0
VERTEX
  8
26 道路
 10
59.666674
 20
-92.279531
  0
VERTEX
  8
26 道路
 10
61.711351
 20
-93.001283
  0
VERTEX
  8
26 道路
 10
63.070966
 20
-93.972462
  0
SEQEND
  0
POLYLINE
  8
26 道路
 40
0.070556
 41
0.070556
 62
252
 66
1
 10
0
 20
0
 30
0
 70
1
  0
VERTEX
  8
26 道路
 10
53.342816
 20
-68.923359
 42
-0.002015
  0
VERTEX
  8
26 道路
 10
52.140815
 20
-69.377081
  0
VERTEX
  8
26 道路
 10
50.990146
 20
-70.125188
  0
VERTEX
  8
26 道路
 10
50.392074
 20
-70.886214
  0
VERTEX
  8
26 道路
 10
50.224296
 20
-72.310426
  0
VERTEX
  8
26 道路
 10
51.032176
 20
-76.922232
  0
VERTEX
  8
26 道路
 10
51.591319
 20
-78.264105
  0
VERTEX
  8
26 道路
 10
52.861189
 20
-78.761408
  0
VERTEX
  8
26 道路
 10
55.532361
 20
-79.574628
  0
VERTEX
  8
26 道路
 10
56.708868
 20
-79.462317
  0
VERTEX
  8
26 道路
 10
59.412079
 20
-78.448763
  0
VERTEX
  8
26 道路
 10
60.122463
 20
-73.652471
  0
VERTEX
  8
26 道路
 10
60.743789
 20
-73.593904
  0
VERTEX
  8
26 道路
 10
60.689529
 20
-71.914410
  0
VERTEX
  8
26 道路
 10
60.073370
 20
-70.514314
  0
VERTEX
  8
26 道路
 10
59.122690
 20
-69.731239
  0
VERTEX
  8
26 道路
 10
57.692621
 20
-69.043249
  0
VERTEX
  8
26 道路
 10
56.308718
 20
-68.582120
  0
VERTEX
  8
26 道路
 10
54.655062
 20
-68.582120
  0
VERTEX
  8
26 道路
 10
53.342644
 20
-68.923359
  0
SEQEND
  0
POLYLINE
  8
26 道路
 40
0.070556
 41
0.070556
 62
252
 66
1
 10
0
 20
0
 30
0
 70
1
  0
VERTEX
  8
26 道路
 10
35.713118
 20
-108.801279
  0
VERTEX
  8
26 道路
 10
33.758359
 20
-110.638560
  0
VERTEX
  8
26 道路
 10
31.779483
 20
-116.633926
  0
VERTEX
  8
26 道路
 10
40.697858
 20
-123.545692
  0
VERTEX
  8
26 道路
 10
57.110052
 20
-122.033286
  0
VERTEX
  8
26 道路
 10
58.241773
 20
-120.524152
  0
VERTEX
  8
26 道路
 10
57.111947
 20
-109.012810
  0
VERTEX
  8
26 道路
 10
55.687046
 20
-107.857662
  0
VERTEX
  8
26 道路
 10
47.724692
 20
-108.236625
  0
VERTEX
  8
26 道路
 10
46.033311
 20
-107.156236
  0
VERTEX
  8
26 道路
 10
39.193203
 20
-107.604962
  0
SEQEND
  0
POLYLINE
  8
26 道路
 40
0.070556
 41
0.070556
 62
252
 66
1
 10
0
 20
0
 30
0
 70
1
  0
VERTEX
  8
26 道路
 10
27.398156
 20
-108.877761
  0
VERTEX
  8
26 道路
 10
26.246109
 20
-112.345271
  0
VERTEX
  8
26 道路
 10
30.758006
 20
-115.842238
  0
VERTEX
  8
26 道路
 10
32.481943
 20
-110.618579
  0
SEQEND
  0
POLYLINE
  8
26 道路
 40
0.070556
 41
0.070556
 62
252
 66
1
 10
0
 20
0
 30
0
 70
1
  0
VERTEX
  8
26 道路
 10
24.520277
 20
-117.399086
  0
VERTEX
  8
26 道路
 10
19.926558
 20
-132.447186
  0
VERTEX
  8
26 道路
 10
17.558557
 20
-144.124583
  0
VERTEX
  8
26 道路
 10
22.570168
 20
-145.288343
  0
VERTEX
  8
26 道路
 10
29.138973
 20
-121.040058
  0
SEQEND
  0
POLYLINE
  8
26 道路
 40
0.070556
 41
0.070556
 62
252
 66
1
 10
0
 20
0
 30
0
 70
1
  0
VERTEX
  8
26 道路
 10
21.668065
 20
-122.331288
  0
VERTEX
  8
26 道路
 10
10.929979
 20
-119.238779
  0
VERTEX
  8
26 道路
 10
8.204547
 20
-129.251151
  0
VERTEX
  8
26 道路
 10
18.709053
 20
-132.024470
  0
SEQEND
  0
POLYLINE
  8
26 道路
 40
0.070556
 41
0.070556
 62
252
 66
1
 10
0
 20
0
 30
0
 70
1
  0
VERTEX
  8
26 道路
 10
7.973551
 20
-130.100372
  0
VERTEX
  8
26 道路
 10
6.780680
 20
-134.481872
  0
VERTEX
  8
26 道路
 10
17.605582
 20
-137.339597
  0
VERTEX
  8
26 道路
 10
18.509753
 20
-132.881960
  0
SEQEND
  0
POLYLINE
  8
26 道路
 40
0.070556
 41
0.070556
 62
252
 66
1
 10
0
 20
0
 30
0
 70
1
  0
VERTEX
  8
26 道路
 10
7.740145
 20
-127.256600
  0
VERTEX
  8
26 道路
 10
-4.635577
 20
-123.930856
  0
VERTEX
  8
26 道路
 10
-5.405389
 20
-126.848181
  0
VERTEX
  8
26 道路
 10
6.937260
 20
-130.205793
  0
SEQEND
  0
POLYLINE
  8
26 道路
 40
0.070556
 41
0.070556
 62
252
 66
1
 10
0
 20
0
 30
0
 70
1
  0
VERTEX
  8
26 道路
 10
-5.582554
 20
-127.520496
  0
VERTEX
  8
26 道路
 10
-8.374649
 20
-138.104585
  0
VERTEX
  8
26 道路
 10
4.005293
 20
-140.978502
  0
VERTEX
  8
26 道路
 10
6.755014
 20
-130.876901
  0
SEQEND
  0
POLYLINE
  8
26 道路
 40
0.070556
 41
0.070556
 62
252
 66
1
 10
0
 20
0
 30
0
 70
1
  0
VERTEX
  8
26 道路
 10
-5.419772
 20
-123.720187
  0
VERTEX
  8
26 道路
 10
-8.736903
 20
-122.828763
  0
VERTEX
  8
26 道路
 10
-10.124941
 20
-129.819078
  0
VERTEX
  8
26 道路
 10
-7.263254
 20
-130.708435
  0
SEQEND
  0
POLYLINE
  8
26 道路
 40
0.070556
 41
0.070556
 62
252
 66
1
 10
0
 20
0
 30
0
 70
1
  0
VERTEX
  8
26 道路
 10
-9.353063
 20
-122.663397
  0
VERTEX
  8
26 道路
 10
-12.321031
 20
-121.865853
  0
VERTEX
  8
26 道路
 10
-13.078354
 20
-128.900782
  0
VERTEX
  8
26 道路
 10
-10.736277
 20
-129.629080
  0
SEQEND
  0
POLYLINE
  8
26 道路
 40
0.070556
 41
0.070556
 62
252
 66
1
 10
0
 20
0
 30
0
 70
1
  0
VERTEX
  8
26 道路
 10
-12.252559
 20
-80.051604
  0
VERTEX
  8
26 道路
 10
-11.905464
 20
-76.471955
  0
VERTEX
  8
26 道路
 10
-17.378205
 20
-74.589371
  0
VERTEX
  8
26 道路
 10
-18.539381
 20
-77.879113
  0
SEQEND
  0
POLYLINE
  8
26 道路
 40
0.070556
 41
0.070556
 62
252
 66
1
 10
0
 20
0
 30
0
 70
1
  0
VERTEX
  8
26 道路
 10
-16.764802
 20
-69.311279
  0
VERTEX
  8
26 道路
 10
-26.529728
 20
-66.247192
  0
VERTEX
  8
26 道路
 10
-27.461460
 20
-70.303645
  0
VERTEX
  8
26 道路
 10
-17.708505
 20
-73.657984
  0
SEQEND
  0
POLYLINE
  8
26 道路
 40
0.070556
 41
0.070556
 62
252
 66
1
 10
0
 20
0
 30
0
 70
1
  0
VERTEX
  8
26 道路
 10
-26.163340
 20
-61.108111
  0
VERTEX
  8
26 道路
 10
-36.017925
 20
-58.603510
  0
VERTEX
  8
26 道路
 10
-36.803153
 20
-62.145780
  0
VERTEX
  8
26 道路
 10
-27.101359
 20
-65.190747
  0
SEQEND
  0
POLYLINE
  8
26 道路
 40
0.070556
 41
0.070556
 62
252
 66
1
 10
0
 20
0
 30
0
 70
1
  0
VERTEX
  8
26 道路
 10
-36.984969
 20
-62.965029
  0
VERTEX
  8
26 道路
 10
-37.822047
 20
-66.740533
  0
VERTEX
  8
26 道路
 10
-28.215940
 20
-70.044056
  0
VERTEX
  8
26 道路
 10
-27.288859
 20
-66.008618
  0
SEQEND
  0
POLYLINE
  8
26 道路
 40
0.070556
 41
0.070556
 62
252
 66
1
 10
0
 20
0
 30
0
 70
1
  0
VERTEX
  8
26 道路
 10
-37.990513
 20
-67.500353
  0
VERTEX
  8
26 道路
 10
-38.743443
 20
-70.897411
  0
VERTEX
  8
26 道路
 10
-29.171530
 20
-74.205068
  0
VERTEX
  8
26 道路
 10
-28.389919
 20
-70.802154
  0
SEQEND
  0
POLYLINE
  8
26 道路
 40
0.070556
 41
0.070556
 62
252
 66
1
 10
0
 20
0
 30
0
 70
1
  0
VERTEX
  8
26 道路
 10
-37.998867
 20
-62.647044
  0
VERTEX
  8
26 道路
 10
-46.011521
 20
-60.132109
  0
VERTEX
  8
26 道路
 10
-46.434151
 20
-63.778249
  0
VERTEX
  8
26 道路
 10
-38.829485
 20
-66.393954
  0
SEQEND
  0
POLYLINE
  8
26 道路
 40
0.070556
 41
0.070556
 62
252
 66
1
 10
0
 20
0
 30
0
 70
1
  0
VERTEX
  8
26 道路
 10
-46.525532
 20
-64.564769
  0
VERTEX
  8
26 道路
 10
-46.909491
 20
-67.876043
  0
VERTEX
  8
26 道路
 10
-46.938602
 20
-68.065525
  0
VERTEX
  8
26 道路
 10
-39.750882
 20
-70.549110
  0
VERTEX
  8
26 道路
 10
-38.997865
 20
-67.153775
  0
SEQEND
  0
POLYLINE
  8
26 道路
 40
0.070556
 41
0.070556
 62
252
 66
1
 10
0
 20
0
 30
0
 70
1
  0
VERTEX
  8
26 道路
 10
-47.124811
 20
-69.275105
  0
VERTEX
  8
26 道路
 10
-48.433008
 20
-77.777999
  0
VERTEX
  8
26 道路
 10
-46.699511
 20
-78.006066
  0
VERTEX
  8
26 道路
 10
-44.133674
 20
-70.308296
  0
SEQEND
  0
POLYLINE
  8
26 道路
 40
0.070556
 41
0.070556
 62
252
 66
1
 10
0
 20
0
 30
0
 70
1
  0
VERTEX
  8
26 道路
 10
-48.277030
 20
-50.242039
  0
VERTEX
  8
26 道路
 10
-52.978323
 20
-49.699605
  0
VERTEX
  8
26 道路
 10
-53.557017
 20
-54.294530
  0
VERTEX
  8
26 道路
 10
-48.819464
 20
-54.919302
  0
SEQEND
  0
POLYLINE
  8
26 道路
 40
0.070556
 41
0.070556
 62
252
 66
1
 10
0
 20
0
 30
0
 70
1
  0
VERTEX
  8
26 道路
 10
60.650944
 20
-12.741766
  0
VERTEX
  8
26 道路
 10
51.273335
 20
-12.499230
  0
VERTEX
  8
26 道路
 10
51.414929
 20
-16.275250
  0
VERTEX
  8
26 道路
 10
60.836119
 20
-16.334851
  0
SEQEND
  0
POLYLINE
  8
26 道路
 40
0.070556
 41
0.070556
 62
252
 66
1
 10
0
 20
0
 30
0
  0
VERTEX
  8
26 道路
 10
51.168603
 20
-9.697833
  0
VERTEX
  8
26 道路
 10
51.243707
 20
-11.704786
  0
VERTEX
  8
26 道路
 10
60.609774
 20
-11.946977
  0
VERTEX
  8
26 道路
 10
60.493846
 20
-9.697833
  0
SEQEND
  0
POLYLINE
  8
26 道路
 40
0.070556
 41
0.070556
 62
252
 66
1
 10
0
 20
0
 30
0
 70
1
  0
VERTEX
  8
26 道路
 10
46.449137
 20
-31.820653
  0
VERTEX
  8
26 道路
 10
46.717856
 20
-35.852990
  0
VERTEX
  8
26 道路
 10
55.706511
 20
-34.919191
  0
VERTEX
  8
26 道路
 10
55.162872
 20
-30.817090
  0
VERTEX
  8
26 道路
 10
54.898459
 20
-30.801415
  0
SEQEND
  0
POLYLINE
  8
26 道路
 40
0.070556
 41
0.070556
 62
252
 66
1
 10
0
 20
0
 30
0
 70
1
  0
VERTEX
  8
26 道路
 10
41.753098
 20
-42.366156
  0
VERTEX
  8
26 道路
 10
42.108634
 20
-44.651303
  0
VERTEX
  8
26 道路
 10
43.497705
 20
-46.615192
  0
VERTEX
  8
26 道路
 10
45.342565
 20
-45.121733
  0
VERTEX
  8
26 道路
 10
47.584648
 20
-43.575565
  0
VERTEX
  8
26 道路
 10
46.503570
 20
-41.751375
  0
SEQEND
  0
POLYLINE
  8
26 道路
 40
0.070556
 41
0.070556
 62
252
 66
1
 10
0
 20
0
 30
0
 70
1
  0
VERTEX
  8
26 道路
 10
41.579464
 20
-44.886432
  0
VERTEX
  8
26 道路
 10
41.198262
 20
-42.437987
  0
VERTEX
  8
26 道路
 10
37.442567
 20
-42.924093
  0
VERTEX
  8
26 道路
 10
38.423392
 20
-52.274486
  0
VERTEX
  8
26 道路
 10
41.197400
 20
-48.737728
  0
VERTEX
  8
26 道路
 10
43.076540
 20
-47.003112
  0
SEQEND
  0
POLYLINE
  8
26 道路
 40
0.070556
 41
0.070556
 62
252
 66
1
 10
0
 20
0
 30
0
 70
1
  0
VERTEX
  8
26 道路
 10
37.279441
 20
-55.919592
  0
VERTEX
  8
26 道路
 10
34.579675
 20
-59.470646
  0
VERTEX
  8
26 道路
 10
31.931413
 20
-64.804721
  0
VERTEX
  8
26 道路
 10
31.212762
 20
-66.242369
  0
VERTEX
  8
26 道路
 10
30.569386
 20
-68.323047
  0
VERTEX
  8
26 道路
 10
30.173025
 20
-70.169113
  0
VERTEX
  8
26 道路
 10
30.114114
 20
-72.168143
  0
VERTEX
  8
26 道路
 10
31.000198
 20
-86.290195
  0
VERTEX
  8
26 道路
 10
40.071536
 20
-85.372071
  0
VERTEX
  8
26 道路
 10
38.797532
 20
-71.544404
  0
VERTEX
  8
26 道路
 10
34.465297
 20
-71.815363
  0
VERTEX
  8
26 道路
 10
33.759737
 20
-65.171282
  0
VERTEX
  8
26 道路
 10
38.180511
 20
-64.847785
  0
SEQEND
  0
POLYLINE
  8
26 道路
 40
0.070556
 41
0.070556
 62
252
 66
1
 10
0
 20
0
 30
0
 70
1
  0
VERTEX
  8
26 道路
 10
37.041039
 20
-54.278166
  0
VERTEX
  8
26 道路
 10
30.892710
 20
-54.899320
  0
VERTEX
  8
26 道路
 10
31.264783
 20
-59.140604
  0
VERTEX
  8
26 道路
 10
33.534426
 20
-58.890144
  0
SEQEND
  0
POLYLINE
  8
26 道路
 40
0.070556
 41
0.070556
 62
252
 66
1
 10
0
 20
0
 30
0
 70
1
  0
VERTEX
  8
26 道路
 10
25.670946
 20
-61.365116
  0
VERTEX
  8
26 道路
 10
25.828905
 20
-67.439202
  0
VERTEX
  8
26 道路
 10
29.339307
 20
-67.750986
  0
VERTEX
  8
26 道路
 10
29.860553
 20
-66.065979
  0
VERTEX
  8
26 道路
 10
30.579377
 20
-64.628331
  0
VERTEX
  8
26 道路
 10
32.577373
 20
-60.603401
  0
SEQEND
  0
POLYLINE
  8
26 道路
 40
0.070556
 41
0.070556
 62
252
 66
1
 10
0
 20
0
 30
0
 70
1
  0
VERTEX
  8
26 道路
 10
30.645695
 20
-59.209162
  0
VERTEX
  8
26 道路
 10
30.273451
 20
-54.962022
  0
VERTEX
  8
26 道路
 10
25.183462
 20
-55.476205
  0
VERTEX
  8
26 道路
 10
25.589125
 20
-59.766582
  0
SEQEND
  0
POLYLINE
  8
26 道路
 40
0.070556
 41
0.070556
 62
252
 66
1
 10
0
 20
0
 30
0
 70
1
  0
VERTEX
  8
26 道路
 10
25.171749
 20
-84.994486
  0
VERTEX
  8
26 道路
 10
20.503270
 20
-84.923517
  0
VERTEX
  8
26 道路
 10
20.503270
 20
-89.276767
  0
VERTEX
  8
26 道路
 10
19.832851
 20
-91.138853
  0
VERTEX
  8
26 道路
 10
25.381556
 20
-93.056233
  0
SEQEND
  0
POLYLINE
  8
26 道路
 40
0.070556
 41
0.070556
 62
252
 66
1
 10
0
 20
0
 30
0
 70
1
  0
VERTEX
  8
26 道路
 10
25.155901
 20
-84.382633
  0
VERTEX
  8
26 道路
 10
25.037734
 20
-79.847137
  0
VERTEX
  8
26 道路
 10
15.160238
 20
-79.641808
  0
VERTEX
  8
26 道路
 10
14.954220
 20
-84.226742
  0
SEQEND
  0
POLYLINE
  8
26 道路
 40
0.070556
 41
0.070556
 62
252
 66
1
 10
0
 20
0
 30
0
 70
1
  0
VERTEX
  8
26 道路
 10
14.926659
 20
-84.838422
  0
VERTEX
  8
26 道路
 10
14.723053
 20
-89.373230
  0
VERTEX
  8
26 道路
 10
19.156230
 20
-90.904929
  0
VERTEX
  8
26 道路
 10
19.805117
 20
-89.102272
  0
VERTEX
  8
26 道路
 10
19.805117
 20
-84.913009
  0
SEQEND
  0
POLYLINE
  8
26 道路
 40
0.070556
 41
0.070556
 62
252
 66
1
 10
0
 20
0
 30
0
 70
1
  0
VERTEX
  8
26 道路
 10
25.017063
 20
-79.056999
  0
VERTEX
  8
26 道路
 10
24.895106
 20
-74.358031
  0
VERTEX
  8
26 道路
 10
14.995389
 20
-74.318412
  0
VERTEX
  8
26 道路
 10
15.153865
 20
-78.852187
  0
SEQEND
  0
POLYLINE
  8
26 道路
 40
0.070556
 41
0.070556
 62
252
 66
1
 10
0
 20
0
 30
0
 70
1
  0
VERTEX
  8
26 道路
 10
24.874435
 20
-73.572889
  0
VERTEX
  8
26 道路
 10
24.736458
 20
-68.277055
  0
VERTEX
  8
26 道路
 10
14.803669
 20
-68.834130
  0
VERTEX
  8
26 道路
 10
14.967656
 20
-73.533270
  0
SEQEND
  0
POLYLINE
  8
26 道路
 40
0.070556
 41
0.070556
 62
252
 66
1
 10
0
 20
0
 30
0
 70
1
  0
VERTEX
  8
26 道路
 10
24.714409
 20
-67.436791
  0
VERTEX
  8
26 道路
 10
24.559551
 20
-61.487590
  0
VERTEX
  8
26 道路
 10
14.585248
 20
-62.587961
  0
VERTEX
  8
26 道路
 10
14.774041
 20
-67.994211
  0
SEQEND
  0
POLYLINE
  8
26 道路
 40
0.070556
 41
0.070556
 62
252
 66
1
 10
0
 20
0
 30
0
 70
1
  0
VERTEX
  8
26 道路
 10
14.493608
 20
-94.650461
  0
VERTEX
  8
26 道路
 10
24.228131
 20
-97.992569
  0
VERTEX
  8
26 道路
 10
25.359680
 20
-94.322485
  0
VERTEX
  8
26 道路
 10
14.667414
 20
-90.627597
  0
SEQEND
  0
POLYLINE
  8
26 道路
 40
0.070556
 41
0.070556
 62
252
 66
1
 10
0
 20
0
 30
0
 70
1
  0
VERTEX
  8
26 道路
 10
23.638499
 20
-103.586750
  0
VERTEX
  8
26 道路
 10
27.311511
 20
-104.892105
  0
VERTEX
  8
26 道路
 10
30.260187
 20
-96.015761
  0
VERTEX
  8
26 道路
 10
26.385119
 20
-94.676643
  0
SEQEND
  0
POLYLINE
  8
26 道路
 40
0.070556
 41
0.070556
 62
252
 66
1
 10
0
 20
0
 30
0
 70
1
  0
VERTEX
  8
26 道路
 10
23.419218
 20
-104.297478
  0
VERTEX
  8
26 道路
 10
21.961933
 20
-109.025384
  0
VERTEX
  8
26 道路
 10
25.123862
 20
-111.475896
  0
VERTEX
  8
26 道路
 10
27.076726
 20
-105.598009
  0
SEQEND
  0
POLYLINE
  8
26 道路
 40
0.070556
 41
0.070556
 62
252
 66
1
 10
0
 20
0
 30
0
 70
1
  0
VERTEX
  8
26 道路
 10
19.663523
 20
-113.570872
  0
VERTEX
  8
26 道路
 10
18.105813
 20
-115.574035
  0
VERTEX
  8
26 道路
 10
16.518303
 20
-115.236758
  0
VERTEX
  8
26 道路
 10
15.926777
 20
-117.447146
  0
VERTEX
  8
26 道路
 10
11.714604
 20
-116.355043
  0
VERTEX
  8
26 道路
 10
11.160802
 20
-118.390763
  0
VERTEX
  8
26 道路
 10
21.924726
 20
-121.491024
  0
VERTEX
  8
26 道路
 10
23.435065
 20
-116.543836
  0
SEQEND
  0
POLYLINE
  8
26 道路
 40
0.070556
 41
0.070556
 62
252
 66
1
 10
0
 20
0
 30
0
 70
1
  0
VERTEX
  8
26 道路
 10
12.261517
 20
-110.646140
  0
VERTEX
  8
26 道路
 10
4.081775
 20
-107.760854
  0
VERTEX
  8
26 道路
 10
-0.447951
 20
-124.145315
  0
VERTEX
  8
26 道路
 10
7.971312
 20
-126.407895
  0
SEQEND
  0
POLYLINE
  8
26 道路
 40
0.070556
 41
0.070556
 62
252
 66
1
 10
0
 20
0
 30
0
 70
1
  0
VERTEX
  8
26 道路
 10
3.379660
 20
-107.512978
  0
VERTEX
  8
26 道路
 10
-5.101788
 20
-104.520894
  0
VERTEX
  8
26 道路
 10
-8.565250
 20
-121.964039
  0
VERTEX
  8
26 道路
 10
-1.165225
 20
-123.952560
  0
SEQEND
  0
POLYLINE
  8
26 道路
 40
0.070556
 41
0.070556
 62
252
 66
1
 10
0
 20
0
 30
0
 70
1
  0
VERTEX
  8
26 道路
 10
-7.895950
 20
-115.324264
  0
VERTEX
  8
26 道路
 10
-11.512462
 20
-114.350502
  0
VERTEX
  8
26 道路
 10
-12.226032
 20
-120.980285
  0
VERTEX
  8
26 道路
 10
-9.181323
 20
-121.798156
  0
SEQEND
  0
POLYLINE
  8
26 道路
 40
0.070556
 41
0.070556
 62
252
 66
1
 10
0
 20
0
 30
0
 70
1
  0
VERTEX
  8
26 道路
 10
-11.375519
 20
-71.003521
  0
VERTEX
  8
26 道路
 10
-16.197735
 20
-69.489736
  0
VERTEX
  8
26 道路
 10
-17.144884
 20
-73.852288
  0
VERTEX
  8
26 道路
 10
-11.828724
 20
-75.680267
  0
SEQEND
  0
POLYLINE
  8
26 道路
 40
0.070556
 41
0.070556
 62
252
 66
1
 10
0
 20
0
 30
0
 70
1
  0
VERTEX
  8
26 道路
 10
-15.568054
 20
-63.801159
  0
VERTEX
  8
26 道路
 10
-25.394217
 20
-61.303449
  0
VERTEX
  8
26 道路
 10
-26.341711
 20
-65.428977
  0
VERTEX
  8
26 道路
 10
-16.586431
 20
-68.490825
  0
SEQEND
  0
POLYLINE
  8
26 道路
 40
0.070556
 41
0.070556
 62
252
 66
1
 10
0
 20
0
 30
0
 70
1
  0
VERTEX
  8
26 道路
 10
-25.045141
 20
-56.239471
  0
VERTEX
  8
26 道路
 10
-34.908081
 20
-53.597066
  0
VERTEX
  8
26 道路
 10
-35.860569
 20
-57.892783
  0
VERTEX
  8
26 道路
 10
-26.000558
 20
-60.398933
  0
SEQEND
  0
POLYLINE
  8
26 道路
 40
0.070556
 41
0.070556
 62
252
 66
1
 10
0
 20
0
 30
0
 70
1
  0
VERTEX
  8
26 道路
 10
-35.567304
 20
-51.680203
  0
VERTEX
  8
26 道路
 10
-34.743490
 20
-47.964644
  0
VERTEX
  8
26 道路
 10
-39.737446
 20
-46.817076
  0
VERTEX
  8
26 道路
 10
-40.134323
 20
-50.456325
  0
SEQEND
  0
POLYLINE
  8
26 道路
 40
0.070556
 41
0.070556
 62
252
 66
1
 10
0
 20
0
 30
0
 70
1
  0
VERTEX
  8
26 道路
 10
-39.334109
 20
-35.757216
  0
VERTEX
  8
26 道路
 10
-43.083171
 20
-34.886635
  0
VERTEX
  8
26 道路
 10
-43.810005
 20
-41.150891
  0
VERTEX
  8
26 道路
 10
-39.975417
 20
-41.633552
  0
SEQEND
  0
POLYLINE
  8
26 道路
 40
0.070556
 41
0.070556
 62
252
 66
1
 10
0
 20
0
 30
0
 70
1
  0
VERTEX
  8
26 道路
 10
-43.913186
 20
-42.042143
  0
VERTEX
  8
26 道路
 10
-44.745785
 20
-49.220734
  0
VERTEX
  8
26 道路
 10
-40.914987
 20
-50.247034
  0
VERTEX
  8
26 道路
 10
-40.072656
 20
-42.525493
  0
SEQEND
  0
POLYLINE
  8
26 道路
 40
0.070556
 41
0.070556
 62
252
 66
1
 10
0
 20
0
 30
0
 70
1
  0
VERTEX
  8
26 道路
 10
-44.941726
 20
-50.909186
  0
VERTEX
  8
26 道路
 10
-45.468312
 20
-55.451056
  0
VERTEX
  8
26 道路
 10
-36.887042
 20
-57.631987
  0
VERTEX
  8
26 道路
 10
-35.931711
 20
-53.323179
  0
SEQEND
  0
POLYLINE
  8
26 道路
 40
0.070556
 41
0.070556
 62
252
 66
1
 10
0
 20
0
 30
0
 70
1
  0
VERTEX
  8
26 道路
 10
-45.552976
 20
-56.180043
  0
VERTEX
  8
26 道路
 10
-45.913421
 20
-59.286333
  0
VERTEX
  8
26 道路
 10
-37.817224
 20
-61.827107
  0
VERTEX
  8
26 道路
 10
-37.044312
 20
-58.342371
  0
SEQEND
  0
POLYLINE
  8
26 道路
 40
0.070556
 41
0.070556
 62
252
 66
1
 10
0
 20
0
 30
0
 70
1
  0
VERTEX
  8
26 道路
 10
-45.824623
 20
-29.098321
  0
VERTEX
  8
26 道路
 10
-50.308357
 20
-28.504900
  0
VERTEX
  8
26 道路
 10
-50.799631
 20
-32.405289
  0
VERTEX
  8
26 道路
 10
-46.295399
 20
-33.156152
  0
SEQEND
  0
POLYLINE
  8
26 道路
 40
0.070556
 41
0.070556
 62
252
 66
1
 10
0
 20
0
 30
0
 70
1
  0
VERTEX
  8
26 道路
 10
-50.933904
 20
-33.470864
  0
VERTEX
  8
26 道路
 10
-51.775030
 20
-40.148190
  0
VERTEX
  8
26 道路
 10
-47.173473
 20
-40.727659
  0
VERTEX
  8
26 道路
 10
-46.419164
 20
-34.223105
  0
SEQEND
  0
POLYLINE
  8
26 道路
 40
0.070556
 41
0.070556
 62
252
 66
1
 10
0
 20
0
 30
0
 70
1
  0
VERTEX
  8
26 道路
 10
-51.887254
 20
-41.038064
  0
VERTEX
  8
26 道路
 10
-52.768774
 20
-48.036819
  0
VERTEX
  8
26 道路
 10
-48.083931
 20
-48.577186
  0
VERTEX
  8
26 道路
 10
-47.276740
 20
-41.618394
  0
SEQEND
  0
POLYLINE
  8
26 道路
 40
0.070556
 41
0.070556
 62
252
 66
1
 10
0
 20
0
 30
0
 70
1
  0
VERTEX
  8
26 道路
 10
-51.776580
 20
-33.390765
  0
VERTEX
  8
26 道路
 10
-56.699136
 20
-32.686238
  0
VERTEX
  8
26 道路
 10
-58.671035
 20
-47.355892
  0
VERTEX
  8
26 道路
 10
-53.609210
 20
-47.939839
  0
SEQEND
  0
POLYLINE
  8
26 道路
 40
0.070556
 41
0.070556
 62
252
 66
1
 10
0
 20
0
 30
0
 70
1
  0
VERTEX
  8
26 道路
 10
-65.085068
 20
-48.302782
  0
VERTEX
  8
26 道路
 10
-65.701055
 20
-54.035630
  0
VERTEX
  8
26 道路
 10
-54.398314
 20
-54.203235
  0
VERTEX
  8
26 道路
 10
-53.818759
 20
-49.602453
  0
SEQEND
  0
POLYLINE
  8
26 道路
 40
0.070556
 41
0.070556
 62
252
 66
1
 10
0
 20
0
 30
0
 70
1
  0
VERTEX
  8
26 道路
 10
-65.777020
 20
-54.742912
  0
VERTEX
  8
26 道路
 10
-66.108612
 20
-57.828359
  0
VERTEX
  8
26 道路
 10
-55.061672
 20
-59.468752
  0
VERTEX
  8
26 道路
 10
-54.487371
 20
-54.910173
  0
SEQEND
  0
POLYLINE
  8
26 道路
 40
0.070556
 41
0.070556
 62
252
 66
1
 10
0
 20
0
 30
0
 70
1
  0
VERTEX
  8
26 道路
 10
-65.869004
 20
-48.212348
  0
VERTEX
  8
26 道路
 10
-69.737871
 20
-47.765861
  0
VERTEX
  8
26 道路
 10
-71.030307
 20
-53.365727
  0
VERTEX
  8
26 道路
 10
-66.488953
 20
-53.981541
  0
SEQEND
  0
POLYLINE
  8
26 道路
 40
0.070556
 41
0.070556
 62
252
 66
1
 10
0
 20
0
 30
0
  0
VERTEX
  8
26 道路
 10
-71.687118
 20
-59.513710
  0
VERTEX
  8
26 道路
 10
-67.248429
 20
-61.047477
  0
VERTEX
  8
26 道路
 10
-66.566210
 20
-54.700537
  0
VERTEX
  8
26 道路
 10
-71.193605
 20
-54.073181
  0
VERTEX
  8
26 道路
 10
-71.687118
 20
-56.211566
  0
SEQEND
  0
POLYLINE
  8
26 道路
 40
0.070556
 41
0.070556
 62
252
 66
1
 10
0
 20
0
 30
0
 70
1
  0
VERTEX
  8
26 道路
 10
-66.985222
 20
-65.983296
  0
VERTEX
  8
26 道路
 10
-60.078279
 20
-68.232268
  0
VERTEX
  8
26 道路
 10
-59.194348
 20
-65.104274
  0
VERTEX
  8
26 道路
 10
-66.615044
 20
-62.539901
  0
SEQEND
  0
POLYLINE
  8
26 道路
 40
0.070556
 41
0.070556
 62
252
 66
1
 10
0
 20
0
 30
0
 70
1
  0
VERTEX
  8
26 道路
 10
-60.147612
 20
-80.392671
  0
VERTEX
  8
26 道路
 10
-55.470865
 20
-82.017216
  0
VERTEX
  8
26 道路
 10
-54.964519
 20
-80.576123
  0
VERTEX
  8
26 道路
 10
-54.964519
 20
-78.071523
  0
VERTEX
  8
26 道路
 10
-59.791817
 20
-78.136119
  0
VERTEX
  8
26 道路
 10
-59.785961
 20
-78.283053
  0
VERTEX
  8
26 道路
 10
-59.874156
 20
-79.694173
  0
SEQEND
  0
POLYLINE
  8
26 道路
 40
0.070556
 41
0.070556
 62
252
 66
1
 10
0
 20
0
 30
0
 70
1
  0
VERTEX
  8
26 道路
 10
-67.056364
 20
-82.099554
  0
VERTEX
  8
26 道路
 10
-67.652541
 20
-83.192518
  0
VERTEX
  8
26 道路
 10
-67.661240
 20
-86.271247
  0
VERTEX
  8
26 道路
 10
-60.678849
 20
-86.271247
  0
VERTEX
  8
26 道路
 10
-59.997319
 20
-84.567119
  0
SEQEND
  0
POLYLINE
  8
26 道路
 40
0.070556
 41
0.070556
 62
252
 66
1
 10
0
 20
0
 30
0
 70
1
  0
VERTEX
  8
26 道路
 10
-67.686820
 20
-95.112968
  0
VERTEX
  8
26 道路
 10
-67.699137
 20
-99.397315
  0
VERTEX
  8
26 道路
 10
-64.697406
 20
-99.432455
  0
VERTEX
  8
26 道路
 10
-64.655806
 20
-95.155343
  0
SEQEND
  0
POLYLINE
  8
26 道路
 40
0.070556
 41
0.070556
 62
252
 66
1
 10
0
 20
0
 30
0
 70
1
  0
VERTEX
  8
26 道路
 10
-64.650122
 20
-94.566400
  0
VERTEX
  8
26 道路
 10
-64.575621
 20
-86.831767
  0
VERTEX
  8
26 道路
 10
-67.662791
 20
-86.831767
  0
VERTEX
  8
26 道路
 10
-67.685098
 20
-94.524025
  0
SEQEND
  0
POLYLINE
  8
26 道路
 40
0.070556
 41
0.070556
 62
252
 66
1
 10
0
 20
0
 30
0
 70
1
  0
VERTEX
  8
26 道路
 10
-67.700687
 20
-99.921490
  0
VERTEX
  8
26 道路
 10
-67.715587
 20
-105.128612
  0
VERTEX
  8
26 道路
 10
-64.752356
 20
-105.155140
  0
VERTEX
  8
26 道路
 10
-64.702143
 20
-99.956630
  0
SEQEND
  0
POLYLINE
  8
26 道路
 40
0.070556
 41
0.070556
 62
252
 66
1
 10
0
 20
0
 30
0
 70
1
  0
VERTEX
  8
26 道路
 10
-67.717137
 20
-105.658127
  0
VERTEX
  8
26 道路
 10
-67.757790
 20
-119.844258
  0
VERTEX
  8
26 道路
 10
-64.896361
 20
-120.060611
  0
VERTEX
  8
26 道路
 10
-64.757437
 20
-105.684826
  0
SEQEND
  0
POLYLINE
  8
26 道路
 40
0.070556
 41
0.070556
 62
252
 66
1
 10
0
 20
0
 30
0
 70
1
  0
VERTEX
  8
26 道路
 10
-67.759340
 20
-120.373428
  0
VERTEX
  8
26 道路
 10
-67.769503
 20
-123.877285
  0
VERTEX
  8
26 道路
 10
-61.097345
 20
-124.297933
  0
VERTEX
  8
26 道路
 10
-61.067889
 20
-120.878827
  0
SEQEND
  0
POLYLINE
  8
26 道路
 40
0.070556
 41
0.070556
 62
252
 66
1
 10
0
 20
0
 30
0
 70
1
  0
VERTEX
  8
26 道路
 10
-64.197950
 20
-95.161716
  0
VERTEX
  8
26 道路
 10
-64.239033
 20
-99.437968
  0
VERTEX
  8
26 道路
 10
-60.883144
 20
-99.477070
  0
VERTEX
  8
26 道路
 10
-60.846023
 20
-95.208914
  0
SEQEND
  0
POLYLINE
  8
26 道路
 40
0.070556
 41
0.070556
 62
252
 66
1
 10
0
 20
0
 30
0
 70
1
  0
VERTEX
  8
26 道路
 10
-60.841028
 20
-94.619971
  0
VERTEX
  8
26 道路
 10
-60.773676
 20
-86.831767
  0
VERTEX
  8
26 道路
 10
-64.117507
 20
-86.831767
  0
VERTEX
  8
26 道路
 10
-64.192180
 20
-94.572601
  0
SEQEND
  0
POLYLINE
  8
26 道路
 40
0.070556
 41
0.070556
 62
252
 66
1
 10
0
 20
0
 30
0
 70
1
  0
VERTEX
  8
26 道路
 10
-64.244287
 20
-99.962315
  0
VERTEX
  8
26 道路
 10
-64.294672
 20
-105.159102
  0
VERTEX
  8
26 道路
 10
-60.932324
 20
-105.189763
  0
VERTEX
  8
26 道路
 10
-60.887623
 20
-100.001589
  0
SEQEND
  0
POLYLINE
  8
26 道路
 40
0.070556
 41
0.070556
 62
252
 66
1
 10
0
 20
0
 30
0
 70
1
  0
VERTEX
  8
26 道路
 10
-64.299495
 20
-105.689305
  0
VERTEX
  8
26 道路
 10
-64.438592
 20
-120.094718
  0
VERTEX
  8
26 道路
 10
-61.063066
 20
-120.350174
  0
VERTEX
  8
26 道路
 10
-60.936802
 20
-105.719278
  0
SEQEND
  0
POLYLINE
  8
26 道路
 40
0.070556
 41
0.070556
 62
252
 66
1
 10
0
 20
0
 30
0
 70
1
  0
VERTEX
  8
26 道路
 10
-67.753656
 20
-76.766340
  0
VERTEX
  8
26 道路
 10
-67.803696
 20
-77.732868
  0
VERTEX
  8
26 道路
 10
-60.968067
 20
-80.107587
  0
VERTEX
  8
26 道路
 10
-60.667911
 20
-79.341393
  0
VERTEX
  8
26 道路
 10
-60.593238
 20
-78.146799
  0
VERTEX
  8
26 道路
 10
-64.195711
 20
-78.194858
  0
VERTEX
  8
26 道路
 10
-66.488781
 20
-76.871933
  0
SEQEND
  0
POLYLINE
  8
26 道路
 40
0.070556
 41
0.070556
 62
252
 66
1
 10
0
 20
0
 30
0
 70
1
  0
VERTEX
  8
26 道路
 10
-66.400586
 20
-76.342763
  0
VERTEX
  8
26 道路
 10
-64.107516
 20
-77.665688
  0
VERTEX
  8
26 道路
 10
-60.591860
 20
-77.618835
  0
VERTEX
  8
26 道路
 10
-60.739569
 20
-73.772706
  0
VERTEX
  8
26 道路
 10
-67.585964
 20
-73.522246
  0
VERTEX
  8
26 道路
 10
-67.725750
 20
-76.232175
  0
SEQEND
  0
POLYLINE
  8
26 道路
 40
0.070556
 41
0.070556
 62
252
 66
1
 10
0
 20
0
 30
0
 70
1
  0
VERTEX
  8
26 道路
 10
-67.771053
 20
-124.468811
  0
VERTEX
  8
26 道路
 10
-67.784920
 20
-129.246844
  0
VERTEX
  8
26 道路
 10
-68.191185
 20
-130.974054
  0
VERTEX
  8
26 道路
 10
-61.164094
 20
-132.016891
  0
VERTEX
  8
26 道路
 10
-61.102426
 20
-124.889288
  0
SEQEND
  0
POLYLINE
  8
26 道路
 40
0.070556
 41
0.070556
 62
252
 66
1
 10
0
 20
0
 30
0
 70
1
  0
VERTEX
  8
26 道路
 10
-68.329851
 20
-132.382073
  0
VERTEX
  8
26 道路
 10
-68.447674
 20
-138.972065
  0
VERTEX
  8
26 道路
 10
-61.225331
 20
-139.126579
  0
VERTEX
  8
26 道路
 10
-61.176238
 20
-133.443686
  0
SEQEND
  0
POLYLINE
  8
26 道路
 40
0.070556
 41
0.070556
 62
252
 66
1
 10
0
 20
0
 30
0
  0
VERTEX
  8
26 道路
 10
-60.608569
 20
-159.787291
  0
VERTEX
  8
26 道路
 10
-60.600817
 20
-158.894661
  0
VERTEX
  8
26 道路
 10
-53.567697
 20
-158.968042
  0
VERTEX
  8
26 道路
 10
-53.577084
 20
-159.787291
  0
SEQEND
  0
POLYLINE
  8
26 道路
 40
0.070556
 41
0.070556
 62
252
 66
1
 10
0
 20
0
 30
0
 70
1
  0
VERTEX
  8
26 道路
 10
-53.559859
 20
-158.260588
  0
VERTEX
  8
26 道路
 10
-53.508010
 20
-153.765054
  0
VERTEX
  8
26 道路
 10
-60.552069
 20
-153.220553
  0
VERTEX
  8
26 道路
 10
-60.594702
 20
-158.187551
  0
SEQEND
  0
POLYLINE
  8
26 道路
 40
0.070556
 41
0.070556
 62
252
 66
1
 10
0
 20
0
 30
0
 70
1
  0
VERTEX
  8
26 道路
 10
-53.499828
 20
-153.046575
  0
VERTEX
  8
26 道路
 10
-53.446256
 20
-148.361732
  0
VERTEX
  8
26 道路
 10
-60.503234
 20
-147.601912
  0
VERTEX
  8
26 道路
 10
-60.545609
 20
-152.501902
  0
SEQEND
  0
POLYLINE
  8
26 道路
 40
0.070556
 41
0.070556
 62
252
 66
1
 10
0
 20
0
 30
0
 70
1
  0
VERTEX
  8
26 道路
 10
-53.436696
 20
-147.530942
  0
VERTEX
  8
26 道路
 10
-53.352549
 20
-140.176651
  0
VERTEX
  8
26 道路
 10
-60.437691
 20
-140.025410
  0
VERTEX
  8
26 道路
 10
-60.496172
 20
-146.771122
  0
SEQEND
  0
POLYLINE
  8
26 道路
 40
0.070556
 41
0.070556
 62
252
 66
1
 10
0
 20
0
 30
0
  0
VERTEX
  8
26 道路
 10
78.317505
 20
-18.468584
  0
VERTEX
  8
26 道路
 10
73.831617
 20
-18.441368
  0
VERTEX
  8
26 道路
 10
73.784936
 20
-9.697833
  0
SEQEND
  0
POLYLINE
  8
26 道路
 40
0.070556
 41
0.070556
 62
252
 66
1
 10
0
 20
0
 30
0
 70
1
  0
VERTEX
  8
26 道路
 10
50.967064
 20
-23.157044
  0
VERTEX
  8
26 道路
 10
45.908943
 20
-23.715842
  0
VERTEX
  8
26 道路
 10
46.385402
 20
-30.863082
  0
VERTEX
  8
26 道路
 10
51.234060
 20
-30.278101
  0
SEQEND
  0
POLYLINE
  8
26 道路
 40
0.070556
 41
0.070556
 62
252
 66
1
 10
0
 20
0
 30
0
 70
1
  0
VERTEX
  8
26 道路
 10
45.889994
 20
-36.585939
  0
VERTEX
  8
26 道路
 10
36.876190
 20
-37.522322
  0
VERTEX
  8
26 道路
 10
37.350583
 20
-42.046449
  0
VERTEX
  8
26 道路
 10
46.177662
 20
-40.904049
  0
SEQEND
  0
POLYLINE
  8
26 道路
 40
0.070556
 41
0.070556
 62
252
 66
1
 10
0
 20
0
 30
0
 70
1
  0
VERTEX
  8
26 道路
 10
45.847275
 20
-35.943424
  0
VERTEX
  8
26 道路
 10
45.579245
 20
-31.925729
  0
VERTEX
  8
26 道路
 10
36.405242
 20
-33.032128
  0
VERTEX
  8
26 道路
 10
36.808838
 20
-36.882391
  0
SEQEND
  0
POLYLINE
  8
26 道路
 40
0.070556
 41
0.070556
 62
252
 66
1
 10
0
 20
0
 30
0
 70
1
  0
VERTEX
  8
26 道路
 10
36.132561
 20
-44.984618
  0
VERTEX
  8
26 道路
 10
24.300479
 20
-46.130636
  0
VERTEX
  8
26 道路
 10
25.118349
 20
-54.785976
  0
VERTEX
  8
26 道路
 10
37.034321
 20
-53.582252
  0
SEQEND
  0
POLYLINE
  8
26 道路
 40
0.070556
 41
0.070556
 62
252
 66
1
 10
0
 20
0
 30
0
 70
1
  0
VERTEX
  8
26 道路
 10
24.083781
 20
-55.587310
  0
VERTEX
  8
26 道路
 10
14.306194
 20
-56.575198
  0
VERTEX
  8
26 道路
 10
14.518068
 20
-60.987876
  0
VERTEX
  8
26 道路
 10
24.490305
 20
-59.887850
  0
SEQEND
  0
POLYLINE
  8
26 道路
 40
0.070556
 41
0.070556
 62
252
 66
1
 10
0
 20
0
 30
0
 70
1
  0
VERTEX
  8
26 道路
 10
14.251761
 20
-100.249810
  0
VERTEX
  8
26 道路
 10
22.615644
 20
-103.222946
  0
VERTEX
  8
26 道路
 10
24.008849
 20
-98.703641
  0
VERTEX
  8
26 道路
 10
14.460190
 20
-95.424923
  0
SEQEND
  0
POLYLINE
  8
26 道路
 40
0.070556
 41
0.070556
 62
252
 66
1
 10
0
 20
0
 30
0
 70
1
  0
VERTEX
  8
26 道路
 10
14.218343
 20
-101.027028
  0
VERTEX
  8
26 道路
 10
14.023005
 20
-105.549950
  0
VERTEX
  8
26 道路
 10
20.265902
 20
-107.710728
  0
VERTEX
  8
26 道路
 10
21.045876
 20
-108.315518
  0
VERTEX
  8
26 道路
 10
22.396362
 20
-103.934190
  0
SEQEND
  0
POLYLINE
  8
26 道路
 40
0.070556
 41
0.070556
 62
252
 66
1
 10
0
 20
0
 30
0
 70
1
  0
VERTEX
  8
26 道路
 10
13.180674
 20
-110.970153
  0
VERTEX
  8
26 道路
 10
11.864122
 20
-115.807270
  0
VERTEX
  8
26 道路
 10
15.516119
 20
-116.752265
  0
VERTEX
  8
26 道路
 10
16.077328
 20
-114.526031
  0
VERTEX
  8
26 道路
 10
17.913231
 20
-114.946163
  0
VERTEX
  8
26 道路
 10
19.218242
 20
-113.219987
  0
VERTEX
  8
26 道路
 10
18.941943
 20
-113.002428
  0
SEQEND
  0
POLYLINE
  8
26 道路
 40
0.070556
 41
0.070556
 62
252
 66
1
 10
0
 20
0
 30
0
 70
1
  0
VERTEX
  8
26 道路
 10
13.540689
 20
-84.712503
  0
VERTEX
  8
26 道路
 10
8.145635
 20
-83.800064
  0
VERTEX
  8
26 道路
 10
7.260929
 20
-86.794732
  0
VERTEX
  8
26 道路
 10
13.352585
 20
-88.899699
  0
SEQEND
  0
POLYLINE
  8
26 道路
 40
0.070556
 41
0.070556
 62
252
 66
1
 10
0
 20
0
 30
0
 70
1
  0
VERTEX
  8
26 道路
 10
9.388289
 20
-88.803063
  0
VERTEX
  8
26 道路
 10
8.339940
 20
-92.537915
  0
VERTEX
  8
26 道路
 10
13.122451
 20
-94.179685
  0
VERTEX
  8
26 道路
 10
13.296085
 20
-90.153549
  0
SEQEND
  0
POLYLINE
  8
26 道路
 40
0.070556
 41
0.070556
 62
252
 66
1
 10
0
 20
0
 30
0
 70
1
  0
VERTEX
  8
26 道路
 10
8.139089
 20
-93.255188
  0
VERTEX
  8
26 道路
 10
6.908838
 20
-97.639617
  0
VERTEX
  8
26 道路
 10
12.881293
 20
-99.762670
  0
VERTEX
  8
26 道路
 10
13.088861
 20
-94.954664
  0
SEQEND
  0
POLYLINE
  8
26 道路
 40
0.070556
 41
0.070556
 62
252
 66
1
 10
0
 20
0
 30
0
 70
1
  0
VERTEX
  8
26 道路
 10
6.707299
 20
-98.357407
  0
VERTEX
  8
26 道路
 10
5.515633
 20
-102.605064
  0
VERTEX
  8
26 道路
 10
12.652193
 20
-105.075041
  0
VERTEX
  8
26 道路
 10
12.847876
 20
-100.540233
  0
SEQEND
  0
POLYLINE
  8
26 道路
 40
0.070556
 41
0.070556
 62
252
 66
1
 10
0
 20
0
 30
0
 70
1
  0
VERTEX
  8
26 道路
 10
6.005873
 20
-98.107636
  0
VERTEX
  8
26 道路
 10
-0.890821
 20
-95.656090
  0
VERTEX
  8
26 道路
 10
-2.260341
 20
-99.913566
  0
VERTEX
  8
26 道路
 10
4.812140
 20
-102.361666
  0
SEQEND
  0
POLYLINE
  8
26 道路
 40
0.070556
 41
0.070556
 62
252
 66
1
 10
0
 20
0
 30
0
 70
1
  0
VERTEX
  8
26 道路
 10
-1.605166
 20
-95.402013
  0
VERTEX
  8
26 道路
 10
-7.139230
 20
-93.434679
  0
VERTEX
  8
26 道路
 10
-8.452078
 20
-97.770359
  0
VERTEX
  8
26 道路
 10
-2.976667
 20
-99.665518
  0
SEQEND
  0
POLYLINE
  8
26 道路
 40
0.070556
 41
0.070556
 62
252
 66
1
 10
0
 20
0
 30
0
 70
1
  0
VERTEX
  8
26 道路
 10
-8.812954
 20
-103.212094
  0
VERTEX
  8
26 道路
 10
-10.430178
 20
-104.289898
  0
VERTEX
  8
26 道路
 10
-11.414535
 20
-113.440130
  0
VERTEX
  8
26 道路
 10
-7.719474
 20
-114.435424
  0
VERTEX
  8
26 道路
 10
-5.708387
 20
-104.307813
  0
SEQEND
  0
POLYLINE
  8
26 道路
 40
0.070556
 41
0.070556
 62
252
 66
1
 10
0
 20
0
 30
0
 70
1
  0
VERTEX
  8
26 道路
 10
-10.795102
 20
-65.013840
  0
VERTEX
  8
26 道路
 10
-14.994011
 20
-63.946198
  0
VERTEX
  8
26 道路
 10
-16.019364
 20
-68.669109
  0
VERTEX
  8
26 道路
 10
-11.292922
 20
-70.152405
  0
SEQEND
  0
POLYLINE
  8
26 道路
 40
0.070556
 41
0.070556
 62
252
 66
1
 10
0
 20
0
 30
0
 70
1
  0
VERTEX
  8
26 道路
 10
-14.537619
 20
-59.054821
  0
VERTEX
  8
26 道路
 10
-24.278344
 20
-56.445145
  0
VERTEX
  8
26 道路
 10
-25.231522
 20
-60.594444
  0
VERTEX
  8
26 道路
 10
-15.413713
 20
-63.089742
  0
SEQEND
  0
POLYLINE
  8
26 道路
 40
0.070556
 41
0.070556
 62
252
 66
1
 10
0
 20
0
 30
0
 70
1
  0
VERTEX
  8
26 道路
 10
-23.725919
 20
-50.496116
  0
VERTEX
  8
26 道路
 10
-33.711677
 20
-48.201496
  0
VERTEX
  8
26 道路
 10
-34.543673
 20
-51.954090
  0
VERTEX
  8
26 道路
 10
-24.668503
 20
-54.599767
  0
SEQEND
  0
POLYLINE
  8
26 道路
 40
0.070556
 41
0.070556
 62
252
 66
1
 10
0
 20
0
 30
0
 70
1
  0
VERTEX
  8
26 道路
 10
-23.567616
 20
-49.806576
  0
VERTEX
  8
26 道路
 10
-22.832859
 20
-46.607096
  0
VERTEX
  8
26 道路
 10
-28.840626
 20
-45.172377
  0
VERTEX
  8
26 道路
 10
-29.463934
 20
-48.451784
  0
SEQEND
  0
POLYLINE
  8
26 道路
 40
0.070556
 41
0.070556
 62
252
 66
1
 10
0
 20
0
 30
0
 70
1
  0
VERTEX
  8
26 道路
 10
-28.463214
 20
-38.282314
  0
VERTEX
  8
26 道路
 10
-31.363141
 20
-37.608794
  0
VERTEX
  8
26 道路
 10
-32.634389
 20
-43.342675
  0
VERTEX
  8
26 道路
 10
-29.564359
 20
-44.075451
  0
SEQEND
  0
POLYLINE
  8
26 道路
 40
0.070556
 41
0.070556
 62
252
 66
1
 10
0
 20
0
 30
0
 70
1
  0
VERTEX
  8
26 道路
 10
-38.387477
 20
-27.078449
  0
VERTEX
  8
26 道路
 10
-42.120606
 20
-26.585625
  0
VERTEX
  8
26 道路
 10
-42.978957
 20
-33.987804
  0
VERTEX
  8
26 道路
 10
-39.235923
 20
-34.857179
  0
SEQEND
  0
POLYLINE
  8
26 道路
 40
0.070556
 41
0.070556
 62
252
 66
1
 10
0
 20
0
 30
0
  0
VERTEX
  8
26 道路
 10
-43.574703
 20
-9.697833
  0
VERTEX
  8
26 道路
 10
-44.761460
 20
-19.931209
  0
VERTEX
  8
26 道路
 10
-49.158980
 20
-19.381713
  0
VERTEX
  8
26 道路
 10
-47.939150
 20
-9.697833
  0
SEQEND
  0
POLYLINE
  8
26 道路
 40
0.070556
 41
0.070556
 62
252
 66
1
 10
0
 20
0
 30
0
 70
1
  0
VERTEX
  8
26 道路
 10
-49.277492
 20
-20.322057
  0
VERTEX
  8
26 道路
 10
-50.188123
 20
-27.550774
  0
VERTEX
  8
26 道路
 10
-45.713777
 20
-28.142818
  0
VERTEX
  8
26 道路
 10
-44.870670
 20
-20.873104
  0
SEQEND
  0
POLYLINE
  8
26 道路
 40
0.070556
 41
0.070556
 62
252
 66
1
 10
0
 20
0
 30
0
  0
VERTEX
  8
26 道路
 10
-71.687118
 20
-45.853993
  0
VERTEX
  8
26 道路
 10
-59.592517
 20
-47.249438
  0
VERTEX
  8
26 道路
 10
-57.492891
 20
-31.627898
  0
VERTEX
  8
26 道路
 10
-51.659532
 20
-32.462478
  0
VERTEX
  8
26 道路
 10
-50.125077
 20
-20.281922
  0
VERTEX
  8
26 道路
 10
-65.254051
 20
-19.721573
  0
VERTEX
  8
26 道路
 10
-71.687118
 20
-19.174144
  0
SEQEND
  0
POLYLINE
  8
26 道路
 40
0.070556
 41
0.070556
 62
252
 66
1
 10
0
 20
0
 30
0
  0
VERTEX
  8
26 道路
 10
-71.687118
 20
-52.507376
  0
VERTEX
  8
26 道路
 10
-70.570728
 20
-47.669742
  0
VERTEX
  8
26 道路
 10
-71.687118
 20
-47.540895
  0
SEQEND
  0
POLYLINE
  8
26 道路
 40
0.070556
 41
0.070556
 62
252
 66
1
 10
0
 20
0
 30
0
  0
VERTEX
  8
26 道路
 10
-71.687118
 20
-65.944538
  0
VERTEX
  8
26 道路
 10
-67.768297
 20
-65.883388
  0
VERTEX
  8
26 道路
 10
-67.380291
 20
-62.275316
  0
VERTEX
  8
26 道路
 10
-71.687118
 20
-60.787026
  0
SEQEND
  0
POLYLINE
  8
26 道路
 40
0.070556
 41
0.070556
 62
252
 66
1
 10
0
 20
0
 30
0
  0
VERTEX
  8
26 道路
 10
-71.687118
 20
-72.252720
  0
VERTEX
  8
26 道路
 10
-67.458926
 20
-72.903158
  0
VERTEX
  8
26 道路
 10
-60.733626
 20
-73.149140
  0
VERTEX
  8
26 道路
 10
-60.234860
 20
-68.826379
  0
VERTEX
  8
26 道路
 10
-67.488209
 20
-66.464923
  0
VERTEX
  8
26 道路
 10
-71.687118
 20
-66.530036
  0
SEQEND
  0
POLYLINE
  8
26 道路
 40
0.070556
 41
0.070556
 62
252
 66
1
 10
0
 20
0
 30
0
  0
VERTEX
  8
26 道路
 10
-71.687118
 20
-74.847238
  0
VERTEX
  8
26 道路
 10
-68.788913
 20
-74.919758
  0
VERTEX
  8
26 道路
 10
-68.707867
 20
-73.355674
  0
VERTEX
  8
26 道路
 10
-71.687118
 20
-72.897302
  0
SEQEND
  0
POLYLINE
  8
26 道路
 40
0.070556
 41
0.070556
 62
252
 66
1
 10
0
 20
0
 30
0
  0
VERTEX
  8
26 道路
 10
-71.687118
 20
-76.383588
  0
VERTEX
  8
26 道路
 10
-68.914488
 20
-77.347015
  0
VERTEX
  8
26 道路
 10
-68.819144
 20
-75.501466
  0
VERTEX
  8
26 道路
 10
-71.687118
 20
-75.429463
  0
SEQEND
  0
POLYLINE
  8
26 道路
 40
0.070556
 41
0.070556
 62
252
 66
1
 10
0
 20
0
 30
0
  0
VERTEX
  8
26 道路
 10
-71.687118
 20
-86.271247
  0
VERTEX
  8
26 道路
 10
-68.455770
 20
-86.271247
  0
VERTEX
  8
26 道路
 10
-68.446641
 20
-83.060053
  0
VERTEX
  8
26 道路
 10
-67.784145
 20
-81.845132
  0
VERTEX
  8
26 道路
 10
-71.681520
 20
-80.482761
  0
VERTEX
  8
26 道路
 10
-71.687118
 20
-80.495852
  0
SEQEND
  0
POLYLINE
  8
26 道路
 40
0.070556
 41
0.070556
 62
252
 66
1
 10
0
 20
0
 30
0
  0
VERTEX
  8
26 道路
 10
-71.687118
 20
-94.468042
  0
VERTEX
  8
26 道路
 10
-68.479628
 20
-94.513345
  0
VERTEX
  8
26 道路
 10
-68.457407
 20
-86.831767
  0
VERTEX
  8
26 道路
 10
-71.687118
 20
-86.831767
  0
SEQEND
  0
POLYLINE
  8
26 道路
 40
0.070556
 41
0.070556
 62
252
 66
1
 10
0
 20
0
 30
0
  0
VERTEX
  8
26 道路
 10
-71.687118
 20
-99.350462
  0
VERTEX
  8
26 道路
 10
-68.493581
 20
-99.387497
  0
VERTEX
  8
26 道路
 10
-68.481264
 20
-95.101599
  0
VERTEX
  8
26 道路
 10
-71.687118
 20
-95.056984
  0
SEQEND
  0
POLYLINE
  8
26 道路
 40
0.070556
 41
0.070556
 62
252
 66
1
 10
0
 20
0
 30
0
 70
1
  0
VERTEX
  8
26 道路
 10
-68.586340
 20
-146.731675
  0
VERTEX
  8
26 道路
 10
-68.677980
 20
-151.873168
  0
VERTEX
  8
26 道路
 10
-61.340484
 20
-152.440062
  0
VERTEX
  8
26 道路
 10
-61.297764
 20
-147.516473
  0
SEQEND
  0
POLYLINE
  8
26 道路
 40
0.070556
 41
0.070556
 62
252
 66
1
 10
0
 20
0
 30
0
 70
1
  0
VERTEX
  8
26 道路
 10
-68.691158
 20
-152.591303
  0
VERTEX
  8
26 道路
 10
-68.789258
 20
-158.102284
  0
VERTEX
  8
26 道路
 10
-61.389835
 20
-158.179455
  0
VERTEX
  8
26 道路
 10
-61.346340
 20
-153.158886
  0
SEQEND
  0
POLYLINE
  8
26 道路
 40
0.070556
 41
0.070556
 62
252
 66
1
 10
0
 20
0
 30
0
  0
VERTEX
  8
26 道路
 10
-68.819316
 20
-159.787291
  0
VERTEX
  8
26 道路
 10
-68.801832
 20
-158.809222
  0
VERTEX
  8
26 道路
 10
-61.396122
 20
-158.886565
  0
VERTEX
  8
26 道路
 10
-61.403874
 20
-159.787291
  0
SEQEND
  0
POLYLINE
  8
26 道路
 40
0.070556
 41
0.070556
 62
252
 66
1
 10
0
 20
0
 30
0
  0
VERTEX
  8
26 道路
 10
-71.687118
 20
-158.050091
  0
VERTEX
  8
26 道路
 10
-69.585597
 20
-158.089193
  0
VERTEX
  8
26 道路
 10
-69.381129
 20
-146.646409
  0
VERTEX
  8
26 道路
 10
-71.687118
 20
-146.398016
  0
SEQEND
  0
POLYLINE
  8
26 道路
 40
0.070556
 41
0.070556
 62
252
 66
1
 10
0
 20
0
 30
0
  0
VERTEX
  8
26 道路
 10
-69.615914
 20
-159.787291
  0
VERTEX
  8
26 道路
 10
-69.598171
 20
-158.798026
  0
VERTEX
  8
26 道路
 10
-71.687118
 20
-158.759096
  0
SEQEND
  0
POLYLINE
  8
26 道路
 40
0.070556
 41
0.070556
 62
252
 66
1
 10
0
 20
0
 30
0
  0
VERTEX
  8
26 道路
 10
46.957809
 20
-9.697833
  0
VERTEX
  8
26 道路
 10
47.031362
 20
-11.882037
  0
VERTEX
  8
26 道路
 10
50.538491
 20
-11.713226
  0
VERTEX
  8
26 道路
 10
50.463043
 20
-9.697833
  0
SEQEND
  0
POLYLINE
  8
26 道路
 40
0.070556
 41
0.070556
 62
252
 66
1
 10
0
 20
0
 30
0
 70
1
  0
VERTEX
  8
26 道路
 10
45.475547
 20
-17.213700
  0
VERTEX
  8
26 道路
 10
45.862778
 20
-23.025441
  0
VERTEX
  8
26 道路
 10
50.941398
 20
-22.464059
  0
VERTEX
  8
26 道路
 10
50.745887
 20
-17.248151
  0
SEQEND
  0
POLYLINE
  8
26 道路
 40
0.070556
 41
0.070556
 62
252
 66
1
 10
0
 20
0
 30
0
 70
1
  0
VERTEX
  8
26 道路
 10
45.160319
 20
-25.639079
  0
VERTEX
  8
26 道路
 10
35.742402
 20
-26.714817
  0
VERTEX
  8
26 道路
 10
36.304989
 20
-32.078520
  0
VERTEX
  8
26 道路
 10
45.515166
 20
-30.967986
  0
SEQEND
  0
POLYLINE
  8
26 道路
 40
0.070556
 41
0.070556
 62
252
 66
1
 10
0
 20
0
 30
0
 70
1
  0
VERTEX
  8
26 道路
 10
45.108986
 20
-24.871507
  0
VERTEX
  8
26 道路
 10
44.877819
 20
-21.406236
  0
VERTEX
  8
26 道路
 10
35.300393
 20
-22.500233
  0
VERTEX
  8
26 道路
 10
35.662131
 20
-25.950345
  0
SEQEND
  0
POLYLINE
  8
26 道路
 40
0.070556
 41
0.070556
 62
252
 66
1
 10
0
 20
0
 30
0
 70
1
  0
VERTEX
  8
26 道路
 10
35.516574
 20
-39.115344
  0
VERTEX
  8
26 道路
 10
23.757528
 20
-40.387109
  0
VERTEX
  8
26 道路
 10
24.200570
 20
-45.074191
  0
VERTEX
  8
26 道路
 10
36.021629
 20
-43.929034
  0
SEQEND
  0
POLYLINE
  8
26 道路
 40
0.070556
 41
0.070556
 62
252
 66
1
 10
0
 20
0
 30
0
 70
1
  0
VERTEX
  8
26 道路
 10
23.696205
 20
-51.487449
  0
VERTEX
  8
26 道路
 10
14.101209
 20
-52.304114
  0
VERTEX
  8
26 道路
 10
14.273121
 20
-55.881868
  0
VERTEX
  8
26 道路
 10
24.018668
 20
-54.897253
  0
SEQEND
  0
POLYLINE
  8
26 道路
 40
0.070556
 41
0.070556
 62
252
 66
1
 10
0
 20
0
 30
0
 70
1
  0
VERTEX
  8
26 道路
 10
23.605598
 20
-50.526089
  0
VERTEX
  8
26 道路
 10
23.200108
 20
-46.237262
  0
VERTEX
  8
26 道路
 10
13.853505
 20
-47.142639
  0
VERTEX
  8
26 道路
 10
14.055045
 20
-51.338620
  0
SEQEND
  0
POLYLINE
  8
26 道路
 40
0.070556
 41
0.070556
 62
252
 66
1
 10
0
 20
0
 30
0
 70
1
  0
VERTEX
  8
26 道路
 10
23.100200
 20
-45.180817
  0
VERTEX
  8
26 道路
 10
22.658363
 20
-40.505793
  0
VERTEX
  8
26 道路
 10
13.365160
 20
-41.511251
  0
VERTEX
  8
26 道路
 10
13.784258
 20
-46.083093
  0
SEQEND
  0
POLYLINE
  8
26 道路
 40
0.070556
 41
0.070556
 62
252
 66
1
 10
0
 20
0
 30
0
 70
1
  0
VERTEX
  8
26 道路
 10
22.598935
 20
-39.871892
  0
VERTEX
  8
26 道路
 10
22.114896
 20
-34.755892
  0
VERTEX
  8
26 道路
 10
12.848565
 20
-35.873661
  0
VERTEX
  8
26 道路
 10
13.307110
 20
-40.877177
  0
SEQEND
  0
POLYLINE
  8
26 道路
 40
0.070556
 41
0.070556
 62
252
 66
1
 10
0
 20
0
 30
0
 70
1
  0
VERTEX
  8
26 道路
 10
4.317076
 20
-57.584445
  0
VERTEX
  8
26 道路
 10
4.160840
 20
-62.129932
  0
VERTEX
  8
26 道路
 10
13.147601
 20
-61.138772
  0
VERTEX
  8
26 道路
 10
12.935382
 20
-56.713864
  0
SEQEND
  0
POLYLINE
  8
26 道路
 40
0.070556
 41
0.070556
 62
252
 66
1
 10
0
 20
0
 30
0
 70
1
  0
VERTEX
  8
26 道路
 10
4.105546
 20
-63.743281
  0
VERTEX
  8
26 道路
 10
3.947415
 20
-68.347163
  0
VERTEX
  8
26 道路
 10
13.396683
 20
-68.055189
  0
VERTEX
  8
26 道路
 10
13.210646
 20
-62.739718
  0
SEQEND
  0
POLYLINE
  8
26 道路
 40
0.070556
 41
0.070556
 62
252
 66
1
 10
0
 20
0
 30
0
 70
1
  0
VERTEX
  8
26 道路
 10
3.918132
 20
-69.192767
  0
VERTEX
  8
26 道路
 10
3.770681
 20
-73.489001
  0
VERTEX
  8
26 道路
 10
13.587887
 20
-73.527758
  0
VERTEX
  8
26 道路
 10
13.425966
 20
-68.898554
  0
SEQEND
  0
POLYLINE
  8
26 道路
 40
0.070556
 41
0.070556
 62
252
 66
1
 10
0
 20
0
 30
0
 70
1
  0
VERTEX
  8
26 道路
 10
3.743809
 20
-74.273626
  0
VERTEX
  8
26 道路
 10
3.594635
 20
-78.612062
  0
VERTEX
  8
26 道路
 10
13.773062
 20
-78.823592
  0
VERTEX
  8
26 道路
 10
13.615275
 20
-74.313073
  0
SEQEND
  0
POLYLINE
  8
26 道路
 40
0.070556
 41
0.070556
 62
252
 66
1
 10
0
 20
0
 30
0
 70
1
  0
VERTEX
  8
26 道路
 10
3.703501
 20
-53.189164
  0
VERTEX
  8
26 道路
 10
1.810065
 20
-53.350051
  0
VERTEX
  8
26 道路
 10
1.671743
 20
-56.904379
  0
VERTEX
  8
26 道路
 10
3.574654
 20
-56.936074
  0
SEQEND
  0
POLYLINE
  8
26 道路
 40
0.070556
 41
0.070556
 62
252
 66
1
 10
0
 20
0
 30
0
 70
1
  0
VERTEX
  8
26 道路
 10
3.516087
 20
-79.399960
  0
VERTEX
  8
26 道路
 10
2.955222
 20
-82.296787
  0
VERTEX
  8
26 道路
 10
13.568422
 20
-84.091865
  0
VERTEX
  8
26 道路
 10
13.769617
 20
-79.613213
  0
SEQEND
  0
POLYLINE
  8
26 道路
 40
0.070556
 41
0.070556
 62
252
 66
1
 10
0
 20
0
 30
0
 70
1
  0
VERTEX
  8
26 道路
 10
2.838088
 20
-82.902439
  0
VERTEX
  8
26 道路
 10
2.409170
 20
-85.117994
  0
VERTEX
  8
26 道路
 10
6.715911
 20
-86.605940
  0
VERTEX
  8
26 道路
 10
7.573746
 20
-83.703601
  0
SEQEND
  0
POLYLINE
  8
26 道路
 40
0.070556
 41
0.070556
 62
252
 66
1
 10
0
 20
0
 30
0
 70
1
  0
VERTEX
  8
26 道路
 10
2.121159
 20
-86.292090
  0
VERTEX
  8
26 道路
 10
0.930612
 20
-89.993696
  0
VERTEX
  8
26 道路
 10
7.636447
 20
-92.296067
  0
VERTEX
  8
26 道路
 10
8.684796
 20
-88.560010
  0
SEQEND
  0
POLYLINE
  8
26 道路
 40
0.070556
 41
0.070556
 62
252
 66
1
 10
0
 20
0
 30
0
 70
1
  0
VERTEX
  8
26 道路
 10
0.702718
 20
-90.701840
  0
VERTEX
  8
26 道路
 10
-0.663099
 20
-94.947602
  0
VERTEX
  8
26 道路
 10
6.207068
 20
-97.390018
  0
VERTEX
  8
26 道路
 10
7.435252
 20
-93.013341
  0
SEQEND
  0
POLYLINE
  8
26 道路
 40
0.070556
 41
0.070556
 62
252
 66
1
 10
0
 20
0
 30
0
 70
1
  0
VERTEX
  8
26 道路
 10
-0.013953
 20
-90.455686
  0
VERTEX
  8
26 道路
 10
-5.651198
 20
-88.520391
  0
VERTEX
  8
26 道路
 10
-6.923394
 20
-92.722401
  0
VERTEX
  8
26 道路
 10
-1.377444
 20
-94.694041
  0
SEQEND
  0
POLYLINE
  8
26 道路
 40
0.070556
 41
0.070556
 62
252
 66
1
 10
0
 20
0
 30
0
 70
1
  0
VERTEX
  8
26 道路
 10
-6.489481
 20
-88.232552
  0
VERTEX
  8
26 道路
 10
-9.753127
 20
-87.112200
  0
VERTEX
  8
26 道路
 10
-10.562213
 20
-95.460752
  0
VERTEX
  8
26 道路
 10
-9.786803
 20
-97.308368
  0
VERTEX
  8
26 道路
 10
-9.289845
 20
-97.480452
  0
SEQEND
  0
POLYLINE
  8
26 道路
 40
0.070556
 41
0.070556
 62
252
 66
1
 10
0
 20
0
 30
0
 70
1
  0
VERTEX
  8
26 道路
 10
-10.326911
 20
-60.182752
  0
VERTEX
  8
26 道路
 10
-13.965041
 20
-59.208128
  0
VERTEX
  8
26 道路
 10
-14.839670
 20
-63.235643
  0
VERTEX
  8
26 道路
 10
-10.723961
 20
-64.281580
  0
SEQEND
  0
POLYLINE
  8
26 道路
 40
0.070556
 41
0.070556
 62
252
 66
1
 10
0
 20
0
 30
0
 70
1
  0
VERTEX
  8
26 道路
 10
-13.324249
 20
-52.886338
  0
VERTEX
  8
26 道路
 10
-22.952749
 20
-50.673712
  0
VERTEX
  8
26 道路
 10
-23.901534
 20
-54.805269
  0
VERTEX
  8
26 道路
 10
-14.323591
 20
-57.371192
  0
SEQEND
  0
POLYLINE
  8
26 道路
 40
0.070556
 41
0.070556
 62
252
 66
1
 10
0
 20
0
 30
0
 70
1
  0
VERTEX
  8
26 道路
 10
-13.170338
 20
-52.195592
  0
VERTEX
  8
26 道路
 10
-12.475975
 20
-49.079484
  0
VERTEX
  8
26 道路
 10
-22.060980
 20
-46.790893
  0
VERTEX
  8
26 道路
 10
-22.794618
 20
-49.984516
  0
SEQEND
  0
POLYLINE
  8
26 道路
 40
0.070556
 41
0.070556
 62
252
 66
1
 10
0
 20
0
 30
0
 70
1
  0
VERTEX
  8
26 道路
 10
-21.302624
 20
-39.945617
  0
VERTEX
  8
26 道路
 10
-27.570412
 20
-38.489710
  0
VERTEX
  8
26 道路
 10
-28.672677
 20
-44.288532
  0
VERTEX
  8
26 道路
 10
-22.631492
 20
-45.731002
  0
SEQEND
  0
POLYLINE
  8
26 道路
 40
0.070556
 41
0.070556
 62
252
 66
1
 10
0
 20
0
 30
0
 70
1
  0
VERTEX
  8
26 道路
 10
-21.101343
 20
-39.069524
  0
VERTEX
  8
26 道路
 10
-20.118709
 20
-34.790688
  0
VERTEX
  8
26 道路
 10
-30.326333
 20
-32.930669
  0
VERTEX
  8
26 道路
 10
-31.168664
 20
-36.730978
  0
SEQEND
  0
POLYLINE
  8
26 道路
 40
0.070556
 41
0.070556
 62
252
 66
1
 10
0
 20
0
 30
0
 70
1
  0
VERTEX
  8
26 道路
 10
-30.347951
 20
-28.139200
  0
VERTEX
  8
26 道路
 10
-37.595358
 20
-27.182836
  0
VERTEX
  8
26 道路
 10
-37.991288
 20
-30.812095
  0
VERTEX
  8
26 道路
 10
-31.214570
 20
-32.047169
  0
SEQEND
  0
POLYLINE
  8
26 道路
 40
0.070556
 41
0.070556
 62
252
 66
1
 10
0
 20
0
 30
0
 70
1
  0
VERTEX
  8
26 道路
 10
-34.387351
 20
-21.228123
  0
VERTEX
  8
26 道路
 10
-33.529000
 20
-11.195770
  0
VERTEX
  8
26 道路
 10
-36.621940
 20
-11.356829
  0
VERTEX
  8
26 道路
 10
-37.678816
 20
-20.816604
  0
SEQEND
  0
POLYLINE
  8
26 道路
 40
0.070556
 41
0.070556
 62
252
 66
1
 10
0
 20
0
 30
0
  0
VERTEX
  8
26 道路
 10
-37.177465
 20
-9.697833
  0
VERTEX
  8
26 道路
 10
-37.284350
 20
-10.778566
  0
VERTEX
  8
26 道路
 10
-40.305632
 20
-10.935663
  0
VERTEX
  8
26 道路
 10
-40.161970
 20
-9.697833
  0
SEQEND
  0
POLYLINE
  8
26 道路
 40
0.070556
 41
0.070556
 62
252
 66
1
 10
0
 20
0
 30
0
 70
1
  0
VERTEX
  8
26 道路
 10
-40.376860
 20
-11.551995
  0
VERTEX
  8
26 道路
 10
-41.397476
 20
-20.351685
  0
VERTEX
  8
26 道路
 10
-38.471451
 20
-20.717557
  0
VERTEX
  8
26 道路
 10
-37.429992
 20
-11.398687
  0
SEQEND
  0
POLYLINE
  8
26 道路
 40
0.070556
 41
0.070556
 62
252
 66
1
 10
0
 20
0
 30
0
 70
1
  0
VERTEX
  8
26 道路
 10
-41.506772
 20
-21.293580
  0
VERTEX
  8
26 道路
 10
-42.016994
 20
-25.694201
  0
VERTEX
  8
26 道路
 10
-39.070902
 20
-26.082982
  0
VERTEX
  8
26 道路
 10
-38.576614
 20
-21.659796
  0
SEQEND
  0
POLYLINE
  8
26 道路
 40
0.070556
 41
0.070556
 62
252
 66
1
 10
0
 20
0
 30
0
  0
VERTEX
  8
26 道路
 10
-61.392850
 20
-9.697833
  0
VERTEX
  8
26 道路
 10
-58.297584
 20
-9.818756
  0
VERTEX
  8
26 道路
 10
-58.354945
 20
-10.393402
  0
VERTEX
  8
26 道路
 10
-57.828273
 20
-10.445940
  0
VERTEX
  8
26 道路
 10
-57.753514
 20
-9.697833
  0
SEQEND
  0
POLYLINE
  8
26 道路
 40
0.070556
 41
0.070556
 62
252
 66
1
 10
0
 20
0
 30
0
  0
VERTEX
  8
26 道路
 10
-48.791903
 20
-9.697833
  0
VERTEX
  8
26 道路
 10
-50.006737
 20
-19.341232
  0
VERTEX
  8
26 道路
 10
-65.136572
 20
-18.780540
  0
VERTEX
  8
26 道路
 10
-71.687118
 20
-18.222947
  0
SEQEND
  0
POLYLINE
  8
26 道路
 40
0.070556
 41
0.070556
 62
252
 66
1
 10
0
 20
0
 30
0
  0
VERTEX
  8
26 道路
 10
-65.717850
 20
-9.697833
  0
VERTEX
  8
26 道路
 10
-64.488718
 20
-10.382894
  0
VERTEX
  8
26 道路
 10
-63.006112
 20
-12.560380
  0
VERTEX
  8
26 道路
 10
-62.568754
 20
-12.262722
  0
VERTEX
  8
26 道路
 10
-63.936552
 20
-10.253530
  0
VERTEX
  8
26 道路
 10
-63.899861
 20
-10.257492
  0
VERTEX
  8
26 道路
 10
-63.840950
 20
-9.697833
  0
SEQEND
  0
POLYLINE
  8
26 道路
 40
0.070556
 41
0.070556
 62
252
 66
1
 10
0
 20
0
 30
0
  0
VERTEX
  8
26 道路
 10
-64.630829
 20
-9.697833
  0
VERTEX
  8
26 道路
 10
-64.387345
 20
-9.833570
  0
VERTEX
  8
26 道路
 10
-64.373048
 20
-9.697833
  0
SEQEND
  0
POLYLINE
  8
26 道路
 40
0.070556
 41
0.070556
 62
252
 66
1
 10
0
 20
0
 30
0
  0
VERTEX
  8
26 道路
 10
-71.687118
 20
-105.092611
  0
VERTEX
  8
26 道路
 10
-68.509859
 20
-105.121378
  0
VERTEX
  8
26 道路
 10
-68.495045
 20
-99.912188
  0
VERTEX
  8
26 道路
 10
-71.687118
 20
-99.874464
  0
SEQEND
  0
POLYLINE
  8
26 道路
 40
0.070556
 41
0.070556
 62
252
 66
1
 10
0
 20
0
 30
0
 70
1
  0
VERTEX
  8
26 道路
 10
-68.571354
 20
-145.901746
  0
VERTEX
  8
26 道路
 10
-65.136572
 20
-146.271580
  0
VERTEX
  8
26 道路
 10
-65.136572
 20
-142.194973
  0
VERTEX
  8
26 道路
 10
-68.505208
 20
-142.194973
  0
SEQEND
  0
POLYLINE
  8
26 道路
 40
0.070556
 41
0.070556
 62
252
 66
1
 10
0
 20
0
 30
0
  0
VERTEX
  8
26 道路
 10
-71.687118
 20
-119.547289
  0
VERTEX
  8
26 道路
 10
-68.552061
 20
-119.784313
  0
VERTEX
  8
26 道路
 10
-68.538281
 20
-114.984576
  0
VERTEX
  8
26 道路
 10
-71.687118
 20
-114.381336
  0
SEQEND
  0
POLYLINE
  8
26 道路
 40
0.070556
 41
0.070556
 62
252
 66
1
 10
0
 20
0
 30
0
  0
VERTEX
  8
26 道路
 10
-71.687118
 20
-130.454874
  0
VERTEX
  8
26 道路
 10
-68.988558
 20
-130.855369
  0
VERTEX
  8
26 道路
 10
-68.578933
 20
-129.114552
  0
VERTEX
  8
26 道路
 10
-68.553612
 20
-120.313139
  0
VERTEX
  8
26 道路
 10
-71.687118
 20
-120.076459
  0
SEQEND
  0
POLYLINE
  8
26 道路
 40
0.070556
 41
0.070556
 62
252
 66
1
 10
0
 20
0
 30
0
 70
1
  0
VERTEX
  8
26 道路
 10
46.529753
 20
-12.700080
  0
VERTEX
  8
26 道路
 10
43.578665
 20
-12.842363
  0
VERTEX
  8
26 道路
 10
43.530778
 20
-12.827033
  0
VERTEX
  8
26 道路
 10
43.804321
 20
-16.316075
  0
VERTEX
  8
26 道路
 10
44.569137
 20
-16.231842
  0
VERTEX
  8
26 道路
 10
46.649298
 20
-16.245106
  0
SEQEND
  0
POLYLINE
  8
26 道路
 40
0.070556
 41
0.070556
 62
252
 66
1
 10
0
 20
0
 30
0
 70
1
  0
VERTEX
  8
26 道路
 10
23.212855
 20
-34.623255
  0
VERTEX
  8
26 道路
 10
23.697411
 20
-39.752863
  0
VERTEX
  8
26 道路
 10
35.450256
 20
-38.481442
  0
VERTEX
  8
26 道路
 10
34.897315
 20
-33.214030
  0
SEQEND
  0
POLYLINE
  8
26 道路
 40
0.070556
 41
0.070556
 62
252
 66
1
 10
0
 20
0
 30
0
 70
1
  0
VERTEX
  8
26 道路
 10
34.797406
 20
-32.260594
  0
VERTEX
  8
26 道路
 10
34.233613
 20
-26.887245
  0
VERTEX
  8
26 道路
 10
22.607203
 20
-28.215165
  0
VERTEX
  8
26 道路
 10
23.122593
 20
-33.668786
  0
SEQEND
  0
POLYLINE
  8
26 道路
 40
0.070556
 41
0.070556
 62
252
 66
1
 10
0
 20
0
 30
0
 70
1
  0
VERTEX
  8
26 道路
 10
33.791260
 20
-22.672661
  0
VERTEX
  8
26 道路
 10
22.208259
 20
-23.995758
  0
VERTEX
  8
26 道路
 10
22.534856
 20
-27.450005
  0
VERTEX
  8
26 道路
 10
34.153514
 20
-26.122946
  0
SEQEND
  0
POLYLINE
  8
26 道路
 40
0.070556
 41
0.070556
 62
252
 66
1
 10
0
 20
0
 30
0
 70
1
  0
VERTEX
  8
26 道路
 10
33.893752
 20
-14.507216
  0
VERTEX
  8
26 道路
 10
34.941757
 20
-10.481941
  0
VERTEX
  8
26 道路
 10
33.798494
 20
-10.521560
  0
SEQEND
  0
POLYLINE
  8
26 道路
 40
0.070556
 41
0.070556
 62
252
 66
1
 10
0
 20
0
 30
0
 70
1
  0
VERTEX
  8
26 道路
 10
33.711505
 20
-21.908189
  0
VERTEX
  8
26 道路
 10
33.350285
 20
-18.468240
  0
VERTEX
  8
26 道路
 10
21.803802
 20
-19.714511
  0
VERTEX
  8
26 道路
 10
22.136256
 20
-23.230253
  0
SEQEND
  0
POLYLINE
  8
26 道路
 40
0.070556
 41
0.070556
 62
252
 66
1
 10
0
 20
0
 30
0
 70
1
  0
VERTEX
  8
26 道路
 10
33.245381
 20
-16.997347
  0
VERTEX
  8
26 道路
 10
33.091384
 20
-10.545676
  0
VERTEX
  8
26 道路
 10
28.633058
 20
-10.699673
  0
VERTEX
  8
26 道路
 10
29.114685
 20
-13.988898
  0
VERTEX
  8
26 道路
 10
29.433359
 20
-17.897212
  0
VERTEX
  8
26 道路
 10
33.116361
 20
-17.492066
  0
SEQEND
  0
POLYLINE
  8
26 道路
 40
0.070556
 41
0.070556
 62
252
 66
1
 10
0
 20
0
 30
0
 70
1
  0
VERTEX
  8
26 道路
 10
28.507656
 20
-14.205941
  0
VERTEX
  8
26 道路
 10
21.363516
 20
-15.056368
  0
VERTEX
  8
26 道路
 10
21.712507
 20
-18.746950
  0
VERTEX
  8
26 道路
 10
28.814616
 20
-17.965425
  0
SEQEND
  0
POLYLINE
  8
26 道路
 40
0.070556
 41
0.070556
 62
252
 66
1
 10
0
 20
0
 30
0
 70
1
  0
VERTEX
  8
26 道路
 10
21.508556
 20
-28.340740
  0
VERTEX
  8
26 道路
 10
12.254971
 20
-29.397529
  0
VERTEX
  8
26 道路
 10
12.761059
 20
-34.918502
  0
VERTEX
  8
26 道路
 10
22.024634
 20
-33.801251
  0
SEQEND
  0
POLYLINE
  8
26 道路
 40
0.070556
 41
0.070556
 62
252
 66
1
 10
0
 20
0
 30
0
 70
1
  0
VERTEX
  8
26 道路
 10
12.007611
 20
-41.658357
  0
VERTEX
  8
26 道路
 10
-0.650697
 20
-43.027791
  0
VERTEX
  8
26 道路
 10
-0.801076
 20
-47.495936
  0
VERTEX
  8
26 道路
 10
12.425504
 20
-46.214697
  0
SEQEND
  0
POLYLINE
  8
26 道路
 40
0.070556
 41
0.070556
 62
252
 66
1
 10
0
 20
0
 30
0
 70
1
  0
VERTEX
  8
26 道路
 10
-0.837163
 20
-48.565472
  0
VERTEX
  8
26 道路
 10
-0.973159
 20
-52.617619
  0
VERTEX
  8
26 道路
 10
3.736919
 20
-52.216608
  0
VERTEX
  8
26 道路
 10
3.877824
 20
-48.109167
  0
SEQEND
  0
POLYLINE
  8
26 道路
 40
0.070556
 41
0.070556
 62
252
 66
1
 10
0
 20
0
 30
0
 70
1
  0
VERTEX
  8
26 道路
 10
-1.005716
 20
-53.589315
  0
VERTEX
  8
26 道路
 10
-1.115615
 20
-56.857870
  0
VERTEX
  8
26 道路
 10
1.149722
 20
-56.895594
  0
VERTEX
  8
26 道路
 10
1.286062
 20
-53.394665
  0
SEQEND
  0
POLYLINE
  8
26 道路
 40
0.070556
 41
0.070556
 62
252
 66
1
 10
0
 20
0
 30
0
 70
1
  0
VERTEX
  8
26 道路
 10
-1.381406
 20
-63.260792
  0
VERTEX
  8
26 道路
 10
-1.992311
 20
-67.747024
  0
VERTEX
  8
26 道路
 10
3.184494
 20
-68.291524
  0
VERTEX
  8
26 道路
 10
3.338319
 20
-63.810116
  0
SEQEND
  0
POLYLINE
  8
26 道路
 40
0.070556
 41
0.070556
 62
252
 66
1
 10
0
 20
0
 30
0
 70
1
  0
VERTEX
  8
26 道路
 10
-2.107206
 20
-68.593317
  0
VERTEX
  8
26 道路
 10
-3.451232
 20
-78.465645
  0
VERTEX
  8
26 道路
 10
2.830164
 20
-78.596387
  0
VERTEX
  8
26 道路
 10
3.155038
 20
-69.147292
  0
SEQEND
  0
POLYLINE
  8
26 道路
 40
0.070556
 41
0.070556
 62
252
 66
1
 10
0
 20
0
 30
0
 70
1
  0
VERTEX
  8
26 道路
 10
-3.558289
 20
-79.253026
  0
VERTEX
  8
26 道路
 10
-4.052750
 20
-82.885041
  0
VERTEX
  8
26 道路
 10
1.676394
 20
-84.864950
  0
VERTEX
  8
26 道路
 10
2.736801
 20
-79.383768
  0
SEQEND
  0
POLYLINE
  8
26 道路
 40
0.070556
 41
0.070556
 62
252
 66
1
 10
0
 20
0
 30
0
 70
1
  0
VERTEX
  8
26 道路
 10
-4.303899
 20
-84.071884
  0
VERTEX
  8
26 道路
 10
-5.435189
 20
-87.808113
  0
VERTEX
  8
26 道路
 10
0.213770
 20
-89.747714
  0
VERTEX
  8
26 道路
 10
1.404833
 20
-86.044558
  0
SEQEND
  0
POLYLINE
  8
26 道路
 40
0.070556
 41
0.070556
 62
252
 66
1
 10
0
 20
0
 30
0
 70
1
  0
VERTEX
  8
26 道路
 10
-4.367720
 20
-79.064406
  0
VERTEX
  8
26 道路
 10
-8.824668
 20
-77.531329
  0
VERTEX
  8
26 道路
 10
-9.172022
 20
-81.115973
  0
VERTEX
  8
26 道路
 10
-4.850467
 20
-82.609432
  0
SEQEND
  0
POLYLINE
  8
26 道路
 40
0.070556
 41
0.070556
 62
252
 66
1
 10
0
 20
0
 30
0
 70
1
  0
VERTEX
  8
26 道路
 10
-9.291395
 20
-82.348636
  0
VERTEX
  8
26 道路
 10
-9.679315
 20
-86.350829
  0
VERTEX
  8
26 道路
 10
-6.274075
 20
-87.520102
  0
VERTEX
  8
26 道路
 10
-5.142182
 20
-83.781805
  0
SEQEND
  0
POLYLINE
  8
26 道路
 40
0.070556
 41
0.070556
 62
252
 66
1
 10
0
 20
0
 30
0
 70
1
  0
VERTEX
  8
26 道路
 10
-9.323607
 20
-49.832414
  0
VERTEX
  8
26 道路
 10
-11.750175
 20
-49.253118
  0
VERTEX
  8
26 道路
 10
-13.602270
 20
-57.564463
  0
VERTEX
  8
26 道路
 10
-10.162407
 20
-58.486032
  0
SEQEND
  0
POLYLINE
  8
26 道路
 40
0.070556
 41
0.070556
 62
252
 66
1
 10
0
 20
0
 30
0
 70
1
  0
VERTEX
  8
26 道路
 10
-10.975110
 20
-42.344452
  0
VERTEX
  8
26 道路
 10
-20.529798
 20
-40.124763
  0
VERTEX
  8
26 道路
 10
-21.859785
 20
-45.915316
  0
VERTEX
  8
26 道路
 10
-12.280465
 20
-48.202013
  0
SEQEND
  0
POLYLINE
  8
26 道路
 40
0.070556
 41
0.070556
 62
252
 66
1
 10
0
 20
0
 30
0
 70
1
  0
VERTEX
  8
26 道路
 10
-10.910342
 20
-41.436664
  0
VERTEX
  8
26 道路
 10
-10.802251
 20
-36.713925
  0
VERTEX
  8
26 道路
 10
-14.042039
 20
-36.713925
  0
VERTEX
  8
26 道路
 10
-19.540188
 20
-35.816300
  0
VERTEX
  8
26 道路
 10
-20.328431
 20
-39.248842
  0
SEQEND
  0
POLYLINE
  8
26 道路
 40
0.070556
 41
0.070556
 62
252
 66
1
 10
0
 20
0
 30
0
 70
1
  0
VERTEX
  8
26 道路
 10
-18.974327
 20
-29.808704
  0
VERTEX
  8
26 道路
 10
-29.296846
 20
-28.288374
  0
VERTEX
  8
26 道路
 10
-30.172336
 20
-32.237167
  0
VERTEX
  8
26 道路
 10
-19.959459
 20
-34.098220
  0
SEQEND
  0
POLYLINE
  8
26 道路
 40
0.070556
 41
0.070556
 62
252
 66
1
 10
0
 20
0
 30
0
 70
1
  0
VERTEX
  8
26 道路
 10
-29.172133
 20
-22.835443
  0
VERTEX
  8
26 道路
 10
-33.682738
 20
-22.271477
  0
VERTEX
  8
26 道路
 10
-34.065319
 20
-26.743411
  0
VERTEX
  8
26 道路
 10
-30.153130
 20
-27.259662
  0
SEQEND
  0
POLYLINE
  8
26 道路
 40
0.070556
 41
0.070556
 62
252
 66
1
 10
0
 20
0
 30
0
 70
1
  0
VERTEX
  8
26 道路
 10
-28.966115
 20
-21.905605
  0
VERTEX
  8
26 道路
 10
-27.863333
 20
-16.931890
  0
VERTEX
  8
26 道路
 10
-33.152621
 20
-16.074400
  0
VERTEX
  8
26 道路
 10
-33.602037
 20
-21.326309
  0
SEQEND
  0
POLYLINE
  8
26 道路
 40
0.070556
 41
0.070556
 62
252
 66
1
 10
0
 20
0
 30
0
  0
VERTEX
  8
26 道路
 10
-33.373195
 20
-9.697833
  0
VERTEX
  8
26 道路
 10
-33.460442
 20
-10.579783
  0
VERTEX
  8
26 道路
 10
-36.581116
 20
-10.741875
  0
VERTEX
  8
26 道路
 10
-36.477848
 20
-9.697833
  0
SEQEND
  0
POLYLINE
  8
26 道路
 40
0.070556
 41
0.070556
 62
252
 66
1
 10
0
 20
0
 30
0
  0
VERTEX
  8
26 道路
 10
-71.687118
 20
-110.377076
  0
VERTEX
  8
26 道路
 10
-68.526826
 20
-110.995475
  0
VERTEX
  8
26 道路
 10
-68.511409
 20
-105.650720
  0
VERTEX
  8
26 道路
 10
-71.687118
 20
-105.621781
  0
SEQEND
  0
POLYLINE
  8
26 道路
 40
0.070556
 41
0.070556
 62
252
 66
1
 10
0
 20
0
 30
0
  0
VERTEX
  8
26 道路
 10
-71.687118
 20
-113.714361
  0
VERTEX
  8
26 道路
 10
-68.536386
 20
-114.317946
  0
VERTEX
  8
26 道路
 10
-68.528807
 20
-111.662105
  0
VERTEX
  8
26 道路
 10
-71.687118
 20
-111.044223
  0
SEQEND
  0
POLYLINE
  8
26 道路
 40
0.070556
 41
0.070556
 62
252
 66
1
 10
0
 20
0
 30
0
  0
VERTEX
  8
26 道路
 10
36.645367
 20
-9.697833
  0
VERTEX
  8
26 道路
 10
36.610571
 20
-9.831503
  0
VERTEX
  8
26 道路
 10
43.578665
 20
-12.048608
  0
VERTEX
  8
26 道路
 10
46.503053
 20
-11.907703
  0
VERTEX
  8
26 道路
 10
46.428639
 20
-9.697833
  0
SEQEND
  0
POLYLINE
  8
26 道路
 40
0.070556
 41
0.070556
 62
252
 66
1
 10
0
 20
0
 30
0
 70
1
  0
VERTEX
  8
26 道路
 10
36.419712
 20
-10.564452
  0
VERTEX
  8
26 道路
 10
34.659946
 20
-17.322221
  0
VERTEX
  8
26 道路
 10
39.032833
 20
-16.841111
  0
VERTEX
  8
26 道路
 10
38.494189
 20
-11.224536
  0
SEQEND
  0
POLYLINE
  8
26 道路
 40
0.070556
 41
0.070556
 62
252
 66
1
 10
0
 20
0
 30
0
  0
VERTEX
  8
26 道路
 10
28.464592
 20
-9.697833
  0
VERTEX
  8
26 道路
 10
28.534528
 20
-10.088509
  0
VERTEX
  8
26 道路
 10
35.103333
 20
-9.862165
  0
VERTEX
  8
26 道路
 10
35.146052
 20
-9.697833
  0
SEQEND
  0
POLYLINE
  8
26 道路
 40
0.070556
 41
0.070556
 62
252
 66
1
 10
0
 20
0
 30
0
 70
1
  0
VERTEX
  8
26 道路
 10
28.006047
 20
-10.721377
  0
VERTEX
  8
26 道路
 10
20.976630
 20
-10.963396
  0
VERTEX
  8
26 道路
 10
21.304949
 20
-14.435386
  0
VERTEX
  8
26 道路
 10
28.425662
 20
-13.587887
  0
SEQEND
  0
POLYLINE
  8
26 道路
 40
0.070556
 41
0.070556
 62
252
 66
1
 10
0
 20
0
 30
0
 70
1
  0
VERTEX
  8
26 道路
 10
21.109956
 20
-24.120988
  0
VERTEX
  8
26 道路
 10
11.867740
 20
-25.176572
  0
VERTEX
  8
26 道路
 10
12.184690
 20
-28.632197
  0
VERTEX
  8
26 道路
 10
21.436553
 20
-27.575407
  0
SEQEND
  0
POLYLINE
  8
26 道路
 40
0.070556
 41
0.070556
 62
252
 66
1
 10
0
 20
0
 30
0
 70
1
  0
VERTEX
  8
26 道路
 10
11.492566
 20
-36.037132
  0
VERTEX
  8
26 道路
 10
-0.464316
 20
-37.479602
  0
VERTEX
  8
26 道路
 10
-0.629165
 20
-42.384588
  0
VERTEX
  8
26 道路
 10
11.949561
 20
-41.023939
  0
SEQEND
  0
POLYLINE
  8
26 道路
 40
0.070556
 41
0.070556
 62
252
 66
1
 10
0
 20
0
 30
0
 70
1
  0
VERTEX
  8
26 道路
 10
11.405060
 20
-35.082317
  0
VERTEX
  8
26 道路
 10
10.897939
 20
-29.552560
  0
VERTEX
  8
26 道路
 10
-0.896075
 20
-30.899773
  0
VERTEX
  8
26 道路
 10
-0.472756
 20
-36.514969
  0
SEQEND
  0
POLYLINE
  8
26 道路
 40
0.070556
 41
0.070556
 62
252
 66
1
 10
0
 20
0
 30
0
 70
1
  0
VERTEX
  8
26 道路
 10
10.828003
 20
-28.787055
  0
VERTEX
  8
26 道路
 10
10.511053
 20
-25.331774
  0
VERTEX
  8
26 道路
 10
-1.205360
 20
-26.669858
  0
VERTEX
  8
26 道路
 10
-1.226031
 20
-26.525163
  0
VERTEX
  8
26 道路
 10
-0.954039
 20
-30.132890
  0
SEQEND
  0
POLYLINE
  8
26 道路
 40
0.070556
 41
0.070556
 62
252
 66
1
 10
0
 20
0
 30
0
  0
VERTEX
  8
26 道路
 10
10.449040
 20
-9.697833
  0
VERTEX
  8
26 道路
 10
10.578921
 20
-11.113948
  0
VERTEX
  8
26 道路
 10
19.813730
 20
-10.409594
  0
VERTEX
  8
26 道路
 10
19.746550
 20
-9.697833
  0
SEQEND
  0
POLYLINE
  8
26 道路
 40
0.070556
 41
0.070556
 62
252
 66
1
 10
0
 20
0
 30
0
 70
1
  0
VERTEX
  8
26 道路
 10
9.101311
 20
-9.952771
  0
VERTEX
  8
26 道路
 10
5.537337
 20
-10.075590
  0
VERTEX
  8
26 道路
 10
5.799683
 20
-14.434869
  0
VERTEX
  8
26 道路
 10
9.484063
 20
-14.125842
  0
SEQEND
  0
POLYLINE
  8
26 道路
 40
0.070556
 41
0.070556
 62
252
 66
1
 10
0
 20
0
 30
0
 70
1
  0
VERTEX
  8
26 道路
 10
4.821958
 20
-15.428613
  0
VERTEX
  8
26 道路
 10
5.262072
 20
-20.416281
  0
VERTEX
  8
26 道路
 10
10.023224
 20
-20.009241
  0
VERTEX
  8
26 道路
 10
9.566746
 20
-15.030530
  0
SEQEND
  0
POLYLINE
  8
26 道路
 40
0.070556
 41
0.070556
 62
252
 66
1
 10
0
 20
0
 30
0
 70
1
  0
VERTEX
  8
26 道路
 10
-1.570371
 20
-21.959349
  0
VERTEX
  8
26 道路
 10
-1.272885
 20
-25.904008
  0
VERTEX
  8
26 道路
 10
10.441117
 20
-24.565753
  0
VERTEX
  8
26 道路
 10
10.110730
 20
-20.961816
  0
SEQEND
  0
POLYLINE
  8
26 道路
 40
0.070556
 41
0.070556
 62
252
 66
1
 10
0
 20
0
 30
0
 70
1
  0
VERTEX
  8
26 道路
 10
4.276079
 20
-20.500170
  0
VERTEX
  8
26 道路
 10
3.835621
 20
-15.511123
  0
VERTEX
  8
26 道路
 10
-2.019614
 20
-16.002742
  0
VERTEX
  8
26 道路
 10
-1.642287
 20
-21.005569
  0
SEQEND
  0
POLYLINE
  8
26 道路
 40
0.070556
 41
0.070556
 62
252
 66
1
 10
0
 20
0
 30
0
 70
1
  0
VERTEX
  8
26 道路
 10
2.371274
 20
-14.722708
  0
VERTEX
  8
26 道路
 10
2.148203
 20
-10.192724
  0
VERTEX
  8
26 道路
 10
-2.445775
 20
-10.351199
  0
VERTEX
  8
26 道路
 10
-2.087827
 20
-15.097020
  0
SEQEND
  0
POLYLINE
  8
26 道路
 40
0.070556
 41
0.070556
 62
252
 66
1
 10
0
 20
0
 30
0
 70
1
  0
VERTEX
  8
26 道路
 10
-2.894329
 20
-13.952036
  0
VERTEX
  8
26 道路
 10
-5.877370
 20
-13.634568
  0
VERTEX
  8
26 道路
 10
-5.525537
 20
-21.336989
  0
VERTEX
  8
26 道路
 10
-2.357752
 20
-21.066719
  0
SEQEND
  0
POLYLINE
  8
26 道路
 40
0.070556
 41
0.070556
 62
252
 66
1
 10
0
 20
0
 30
0
 70
1
  0
VERTEX
  8
26 道路
 10
-5.910357
 20
-47.462174
  0
VERTEX
  8
26 道路
 10
-1.581912
 20
-47.540895
  0
VERTEX
  8
26 道路
 10
-1.245324
 20
-37.530590
  0
VERTEX
  8
26 道路
 10
-4.931168
 20
-37.359195
  0
SEQEND
  0
POLYLINE
  8
26 道路
 40
0.070556
 41
0.070556
 62
252
 66
1
 10
0
 20
0
 30
0
 70
1
  0
VERTEX
  8
26 道路
 10
-6.015950
 20
-48.551520
  0
VERTEX
  8
26 道路
 10
-7.074290
 20
-59.470646
  0
VERTEX
  8
26 道路
 10
-2.044591
 20
-61.307066
  0
VERTEX
  8
26 道路
 10
-1.618430
 20
-48.631619
  0
SEQEND
  0
POLYLINE
  8
26 道路
 40
0.070556
 41
0.070556
 62
252
 66
1
 10
0
 20
0
 30
0
 70
1
  0
VERTEX
  8
26 道路
 10
-7.240344
 20
-61.184937
  0
VERTEX
  8
26 道路
 10
-7.695272
 20
-65.879598
  0
VERTEX
  8
26 道路
 10
-2.799158
 20
-67.539111
  0
VERTEX
  8
26 道路
 10
-2.185152
 20
-63.030831
  0
SEQEND
  0
POLYLINE
  8
26 道路
 40
0.070556
 41
0.070556
 62
252
 66
1
 10
0
 20
0
 30
0
 70
1
  0
VERTEX
  8
26 道路
 10
-7.778213
 20
-66.735021
  0
VERTEX
  8
26 道路
 10
-8.748186
 20
-76.739985
  0
VERTEX
  8
26 道路
 10
-4.261524
 20
-78.283053
  0
VERTEX
  8
26 道路
 10
-2.914052
 20
-68.383509
  0
SEQEND
  0
POLYLINE
  8
26 道路
 40
0.070556
 41
0.070556
 62
252
 66
1
 10
0
 20
0
 30
0
 70
1
  0
VERTEX
  8
26 道路
 10
-8.141673
 20
-37.636183
  0
VERTEX
  8
26 道路
 10
-10.103667
 20
-37.292532
  0
VERTEX
  8
26 道路
 10
-10.202456
 20
-41.600824
  0
VERTEX
  8
26 道路
 10
-8.562753
 20
-41.981681
  0
SEQEND
  0
POLYLINE
  8
26 道路
 40
0.070556
 41
0.070556
 62
252
 66
1
 10
0
 20
0
 30
0
 70
1
  0
VERTEX
  8
26 道路
 10
-10.248276
 20
-42.513091
  0
VERTEX
  8
26 道路
 10
-11.554579
 20
-48.375991
  0
VERTEX
  8
26 道路
 10
-9.236187
 20
-48.929277
  0
VERTEX
  8
26 道路
 10
-8.650431
 20
-42.884130
  0
SEQEND
  0
POLYLINE
  8
26 道路
 40
0.070556
 41
0.070556
 62
252
 66
1
 10
0
 20
0
 30
0
 70
1
  0
VERTEX
  8
26 道路
 10
-10.672112
 20
-31.031376
  0
VERTEX
  8
26 道路
 10
-18.186860
 20
-29.924632
  0
VERTEX
  8
26 道路
 10
-19.327452
 20
-34.891113
  0
VERTEX
  8
26 道路
 10
-13.924561
 20
-35.773236
  0
VERTEX
  8
26 道路
 10
-10.780547
 20
-35.773236
  0
SEQEND
  0
POLYLINE
  8
26 道路
 40
0.070556
 41
0.070556
 62
252
 66
1
 10
0
 20
0
 30
0
 70
1
  0
VERTEX
  8
26 道路
 10
-17.749330
 20
-24.475835
  0
VERTEX
  8
26 道路
 10
-28.119477
 20
-22.977898
  0
VERTEX
  8
26 道路
 10
-29.101938
 20
-27.408836
  0
VERTEX
  8
26 道路
 10
-18.772788
 20
-28.930544
  0
SEQEND
  0
POLYLINE
  8
26 道路
 40
0.070556
 41
0.070556
 62
252
 66
1
 10
0
 20
0
 30
0
 70
1
  0
VERTEX
  8
26 道路
 10
-17.536422
 20
-23.548582
  0
VERTEX
  8
26 道路
 10
-16.442166
 20
-18.783985
  0
VERTEX
  8
26 道路
 10
-26.816620
 20
-17.101734
  0
VERTEX
  8
26 道路
 10
-27.913631
 20
-22.049611
  0
SEQEND
  0
POLYLINE
  8
26 道路
 40
0.070556
 41
0.070556
 62
252
 66
1
 10
0
 20
0
 30
0
 70
1
  0
VERTEX
  8
26 道路
 10
-26.510694
 20
-10.830932
  0
VERTEX
  8
26 道路
 10
-32.731800
 20
-11.154428
  0
VERTEX
  8
26 道路
 10
-33.084322
 20
-15.277544
  0
VERTEX
  8
26 道路
 10
-27.690388
 20
-16.152087
  0
SEQEND
  0
POLYLINE
  8
26 道路
 40
0.070556
 41
0.070556
 62
252
 66
1
 10
0
 20
0
 30
0
  0
VERTEX
  8
26 道路
 10
-26.448251
 20
-9.697833
  0
VERTEX
  8
26 道路
 10
-26.448251
 20
-10.214772
  0
VERTEX
  8
26 道路
 10
-32.756949
 20
-10.542920
  0
VERTEX
  8
26 道路
 10
-32.673405
 20
-9.697833
  0
SEQEND
  0
POLYLINE
  8
26 道路
 40
0.070556
 41
0.070556
 62
252
 66
1
 10
0
 20
0
 30
0
  0
VERTEX
  8
26 道路
 10
20.857084
 20
-9.697833
  0
VERTEX
  8
26 道路
 10
20.918752
 20
-10.351371
  0
VERTEX
  8
26 道路
 10
27.905449
 20
-10.110385
  0
VERTEX
  8
26 道路
 10
27.831724
 20
-9.697833
  0
SEQEND
  0
POLYLINE
  8
26 道路
 40
0.070556
 41
0.070556
 62
252
 66
1
 10
0
 20
0
 30
0
 70
1
  0
VERTEX
  8
26 道路
 10
11.469312
 20
-20.830040
  0
VERTEX
  8
26 道路
 10
11.797459
 20
-24.411067
  0
VERTEX
  8
26 道路
 10
21.037608
 20
-23.355655
  0
VERTEX
  8
26 道路
 10
20.704810
 20
-19.832851
  0
SEQEND
  0
POLYLINE
  8
26 道路
 40
0.070556
 41
0.070556
 62
252
 66
1
 10
0
 20
0
 30
0
 70
1
  0
VERTEX
  8
26 道路
 10
20.613514
 20
-18.867701
  0
VERTEX
  8
26 道路
 10
20.265557
 20
-15.187282
  0
VERTEX
  8
26 道路
 10
11.052625
 20
-16.284035
  0
VERTEX
  8
26 道路
 10
11.382667
 20
-19.883322
  0
SEQEND
  0
POLYLINE
  8
26 道路
 40
0.070556
 41
0.070556
 62
252
 66
1
 10
0
 20
0
 30
0
 70
1
  0
VERTEX
  8
26 道路
 10
20.206990
 20
-14.566300
  0
VERTEX
  8
26 道路
 10
19.871264
 20
-11.015762
  0
VERTEX
  8
26 道路
 10
10.634215
 20
-11.720461
  0
VERTEX
  8
26 道路
 10
10.995781
 20
-15.662881
  0
SEQEND
  0
POLYLINE
  8
26 道路
 40
0.070556
 41
0.070556
 62
252
 66
1
 10
0
 20
0
 30
0
 70
1
  0
VERTEX
  8
26 道路
 10
4.833499
 20
-10.100050
  0
VERTEX
  8
26 道路
 10
2.852902
 20
-10.168436
  0
VERTEX
  8
26 道路
 10
3.073734
 20
-14.663625
  0
VERTEX
  8
26 道路
 10
5.097395
 20
-14.493780
  0
SEQEND
  0
POLYLINE
  8
26 道路
 40
0.070556
 41
0.070556
 62
252
 66
1
 10
0
 20
0
 30
0
  0
VERTEX
  8
26 道路
 10
-6.056947
 20
-9.697833
  0
VERTEX
  8
26 道路
 10
-5.913630
 20
-12.837023
  0
VERTEX
  8
26 道路
 10
-2.954619
 20
-13.151907
  0
VERTEX
  8
26 道路
 10
-3.215156
 20
-9.697833
  0
SEQEND
  0
POLYLINE
  8
26 道路
 40
0.070556
 41
0.070556
 62
252
 66
1
 10
0
 20
0
 30
0
 70
1
  0
VERTEX
  8
26 道路
 10
-8.237534
 20
-31.390013
  0
VERTEX
  8
26 道路
 10
-9.962676
 20
-31.135763
  0
VERTEX
  8
26 道路
 10
-10.071886
 20
-35.902600
  0
VERTEX
  8
26 道路
 10
-8.014893
 20
-36.262787
  0
SEQEND
  0
POLYLINE
  8
26 道路
 40
0.070556
 41
0.070556
 62
252
 66
1
 10
0
 20
0
 30
0
 70
1
  0
VERTEX
  8
26 道路
 10
-8.279306
 20
-30.476023
  0
VERTEX
  8
26 道路
 10
-8.492214
 20
-25.813057
  0
VERTEX
  8
26 道路
 10
-16.961604
 20
-24.589696
  0
VERTEX
  8
26 道路
 10
-17.985234
 20
-29.046300
  0
SEQEND
  0
POLYLINE
  8
26 道路
 40
0.070556
 41
0.070556
 62
252
 66
1
 10
0
 20
0
 30
0
 70
1
  0
VERTEX
  8
26 道路
 10
-16.401428
 20
-17.982650
  0
VERTEX
  8
26 道路
 10
-16.471191
 20
-12.322323
  0
VERTEX
  8
26 道路
 10
-25.447875
 20
-10.928084
  0
VERTEX
  8
26 道路
 10
-26.643761
 20
-16.321759
  0
SEQEND
  0
POLYLINE
  8
26 道路
 40
0.070556
 41
0.070556
 62
252
 66
1
 10
0
 20
0
 30
0
  0
VERTEX
  8
26 道路
 10
-25.389911
 20
-9.697833
  0
VERTEX
  8
26 道路
 10
-25.389911
 20
-10.306240
  0
VERTEX
  8
26 道路
 10
-16.479115
 20
-11.690316
  0
VERTEX
  8
26 道路
 10
-16.503748
 20
-9.697833
  0
SEQEND
  0
POLYLINE
  8
26 道路
 40
0.070556
 41
0.070556
 62
252
 66
1
 10
0
 20
0
 30
0
 70
1
  0
VERTEX
  8
26 道路
 10
-9.055491
 20
-13.474542
  0
VERTEX
  8
26 道路
 10
-15.677006
 20
-12.446003
  0
VERTEX
  8
26 道路
 10
-15.607156
 20
-18.111670
  0
VERTEX
  8
26 道路
 10
-8.793231
 20
-19.216347
  0
SEQEND
  0
POLYLINE
  8
26 道路
 40
0.070556
 41
0.070556
 62
252
 66
1
 10
0
 20
0
 30
0
  0
VERTEX
  8
26 道路
 10
-15.710854
 20
-9.697833
  0
VERTEX
  8
26 道路
 10
-15.684757
 20
-11.813651
  0
VERTEX
  8
26 道路
 10
-9.084602
 20
-12.838746
  0
VERTEX
  8
26 道路
 10
-9.228091
 20
-9.697833
  0
SEQEND
  0
POLYLINE
  8
29 川・池
 40
0.035278
 41
0.035278
 62
150
 66
1
 10
0
 20
0
 30
0
  0
VERTEX
  8
29 川・池
 10
78.317505
 20
-48.971307
  0
VERTEX
  8
29 川・池
 10
76.984589
 20
-48.336889
  0
VERTEX
  8
29 川・池
 10
76.984589
 20
-48.337750
  0
VERTEX
  8
29 川・池
 10
76.126410
 20
-47.791699
  0
VERTEX
  8
29 川・池
 10
75.783793
 20
-46.842569
  0
VERTEX
  8
29 川・池
 10
75.680956
 20
-45.782851
  0
VERTEX
  8
29 川・池
 10
75.856313
 20
-44.092332
  0
VERTEX
  8
29 川・池
 10
75.944508
 20
-43.452057
  0
VERTEX
  8
29 川・池
 10
75.925043
 20
-40.152152
  0
VERTEX
  8
29 川・池
 10
76.182910
 20
-39.331353
  0
VERTEX
  8
29 川・池
 10
76.700367
 20
-38.409784
  0
VERTEX
  8
29 川・池
 10
76.959439
 20
-38.139170
  0
VERTEX
  8
29 川・池
 10
76.959439
 20
-38.134174
  0
VERTEX
  8
29 川・池
 10
77.295683
 20
-37.106151
  0
VERTEX
  8
29 川・池
 10
77.573359
 20
-36.175453
  0
VERTEX
  8
29 川・池
 10
77.660865
 20
-35.265253
  0
VERTEX
  8
29 川・池
 10
77.580249
 20
-35.005319
  0
VERTEX
  8
29 川・池
 10
77.499806
 20
-34.835475
  0
VERTEX
  8
29 川・池
 10
77.329445
 20
-34.676310
  0
VERTEX
  8
29 川・池
 10
76.949104
 20
-34.536955
  0
VERTEX
  8
29 川・池
 10
76.949104
 20
-34.539022
  0
VERTEX
  8
29 川・池
 10
76.026846
 20
-33.791776
  0
VERTEX
  8
29 川・池
 10
75.227234
 20
-33.804007
  0
VERTEX
  8
29 川・池
 10
74.856884
 20
-33.765077
  0
VERTEX
  8
29 川・池
 10
74.656723
 20
-33.595577
  0
VERTEX
  8
29 川・池
 10
74.235730
 20
-33.156669
  0
VERTEX
  8
29 川・池
 10
73.925669
 20
-33.127558
  0
VERTEX
  8
29 川・池
 10
73.286944
 20
-33.599367
  0
VERTEX
  8
29 川・池
 10
72.070990
 20
-35.152770
  0
VERTEX
  8
29 川・池
 10
71.642245
 20
-35.513818
  0
VERTEX
  8
29 川・池
 10
71.344243
 20
-36.324971
  0
VERTEX
  8
29 川・池
 10
70.828681
 20
-37.906280
  0
VERTEX
  8
29 川・池
 10
70.674512
 20
-39.986958
  0
VERTEX
  8
29 川・池
 10
70.551521
 20
-46.017292
  0
VERTEX
  8
29 川・池
 10
70.843323
 20
-46.656533
  0
VERTEX
  8
29 川・池
 10
72.590686
 20
-49.251568
  0
VERTEX
  8
29 川・池
 10
74.433479
 20
-50.326272
  0
VERTEX
  8
29 川・池
 10
75.894554
 20
-50.682152
  0
VERTEX
  8
29 川・池
 10
76.995096
 20
-50.879213
  0
VERTEX
  8
29 川・池
 10
76.995096
 20
-50.877835
  0
VERTEX
  8
29 川・池
 10
77.391457
 20
-50.965858
  0
VERTEX
  8
29 川・池
 10
77.761807
 20
-51.084887
  0
VERTEX
  8
29 川・池
 10
78.317505
 20
-51.297106
  0
SEQEND
  0
POLYLINE
  8
29 川・池
 40
0.035278
 41
0.035278
 62
150
 66
1
 10
0
 20
0
 30
0
  0
VERTEX
  8
29 川・池
 10
78.317505
 20
-63.822863
  0
VERTEX
  8
29 川・池
 10
71.113075
 20
-64.495867
  0
VERTEX
  8
29 川・池
 10
70.448857
 20
-56.822557
  0
VERTEX
  8
29 川・池
 10
57.337085
 20
-57.410639
  0
VERTEX
  8
29 川・池
 10
39.788003
 20
-59.193487
  0
VERTEX
  8
29 川・池
 10
38.992525
 20
-59.938838
  0
VERTEX
  8
29 川・池
 10
41.520897
 20
-86.867769
  0
VERTEX
  8
29 川・池
 10
38.412368
 20
-87.529576
  0
VERTEX
  8
29 川・池
 10
38.083359
 20
-87.950397
  0
VERTEX
  8
29 川・池
 10
39.174772
 20
-104.535708
  0
VERTEX
  8
29 川・池
 10
39.555802
 20
-104.864716
  0
VERTEX
  8
29 川・池
 10
39.966460
 20
-105.093472
  0
VERTEX
  8
29 川・池
 10
40.336638
 20
-105.192347
  0
VERTEX
  8
29 川・池
 10
45.485538
 20
-104.828026
  0
VERTEX
  8
29 川・池
 10
44.855426
 20
-97.609816
  0
VERTEX
  8
29 川・池
 10
44.075451
 20
-97.651847
  0
VERTEX
  8
29 川・池
 10
43.638955
 20
-91.692827
  0
VERTEX
  8
29 川・池
 10
49.676867
 20
-91.105952
  0
VERTEX
  8
29 川・池
 10
49.132539
 20
-85.837679
  0
VERTEX
  8
29 川・池
 10
61.989027
 20
-84.591752
  0
VERTEX
  8
29 川・池
 10
61.813843
 20
-82.632169
  0
VERTEX
  8
29 川・池
 10
47.957409
 20
-84.010905
  0
VERTEX
  8
29 川・池
 10
45.935126
 20
-65.246385
  0
VERTEX
  8
29 川・池
 10
56.692504
 20
-64.256259
  0
VERTEX
  8
29 川・池
 10
62.042082
 20
-64.121210
  0
VERTEX
  8
29 川・池
 10
67.653144
 20
-64.465722
  0
VERTEX
  8
29 川・池
 10
67.734621
 20
-68.685474
  0
VERTEX
  8
29 川・池
 10
73.123990
 20
-68.290319
  0
VERTEX
  8
29 川・池
 10
73.484694
 20
-72.259610
  0
VERTEX
  8
29 川・池
 10
74.864808
 20
-72.175550
  0
VERTEX
  8
29 川・池
 10
74.595055
 20
-68.666181
  0
VERTEX
  8
29 川・池
 10
77.044017
 20
-68.437253
  0
VERTEX
  8
29 川・池
 10
78.317505
 20
-68.402974
  0
SEQEND
  0
POLYLINE
  8
30 公園・緑地
 40
0.105834
 41
0.105834
 62
3
 66
1
 10
0
 20
0
 30
0
  0
VERTEX
  8
30 公園・緑地
 10
78.317505
 20
-18.468584
  0
VERTEX
  8
30 公園・緑地
 10
76.542236
 20
-18.457904
  0
VERTEX
  8
30 公園・緑地
 10
76.361711
 20
-9.697833
  0
SEQEND
  0
POLYLINE
  8
30 公園・緑地
 40
0.105834
 41
0.105834
 62
3
 66
1
 10
0
 20
0
 30
0
  0
VERTEX
  8
30 公園・緑地
 10
78.317505
 20
-20.275893
  0
VERTEX
  8
30 公園・緑地
 10
76.275239
 20
-20.263490
  0
VERTEX
  8
30 公園・緑地
 10
76.210815
 20
-22.720548
  0
VERTEX
  8
30 公園・緑地
 10
75.240670
 20
-25.719178
  0
VERTEX
  8
30 公園・緑地
 10
74.182330
 20
-27.659468
  0
VERTEX
  8
30 公園・緑地
 10
70.830920
 20
-30.481708
  0
VERTEX
  8
30 公園・緑地
 10
68.714240
 20
-32.598388
  0
VERTEX
  8
30 公園・緑地
 10
66.244780
 20
-35.244238
  0
VERTEX
  8
30 公園・緑地
 10
66.591015
 20
-41.392738
  0
VERTEX
  8
30 公園・緑地
 10
68.714240
 20
-41.245460
  0
VERTEX
  8
30 公園・緑地
 10
68.751620
 20
-41.870576
  0
VERTEX
  8
30 公園・緑地
 10
66.835273
 20
-42.005625
  0
VERTEX
  8
30 公園・緑地
 10
67.814031
 20
-54.509161
  0
VERTEX
  8
30 公園・緑地
 10
78.317505
 20
-53.990499
  0
SEQEND
  0
POLYLINE
  8
30 公園・緑地
 40
0.105834
 41
0.105834
 62
3
 66
1
 10
0
 20
0
 30
0
  0
VERTEX
  8
30 公園・緑地
 10
78.317505
 20
-56.102872
  0
VERTEX
  8
30 公園・緑地
 10
56.984305
 20
-57.156389
  0
VERTEX
  8
30 公園・緑地
 10
38.698312
 20
-59.016580
  0
VERTEX
  8
30 公園・緑地
 10
41.109205
 20
-86.749773
  0
VERTEX
  8
30 公園・緑地
 10
37.757795
 20
-87.455333
  0
VERTEX
  8
30 公園・緑地
 10
38.519855
 20
-102.788689
  0
VERTEX
  8
30 公園・緑地
 10
38.344154
 20
-106.385219
  0
VERTEX
  8
30 公園・緑地
 10
58.269506
 20
-105.076419
  0
VERTEX
  8
30 公園・緑地
 10
76.045794
 20
-103.677701
  0
VERTEX
  8
30 公園・緑地
 10
77.627275
 20
-104.630448
  0
VERTEX
  8
30 公園・緑地
 10
78.317505
 20
-114.498470
  0
SEQEND
  0
POLYLINE
  8
30 公園・緑地
 40
0.105834
 41
0.105834
 62
3
 66
1
 10
0
 20
0
 30
0
 70
1
  0
VERTEX
  8
30 公園・緑地
 10
39.193203
 20
-107.604962
  0
VERTEX
  8
30 公園・緑地
 10
46.033311
 20
-107.156236
  0
VERTEX
  8
30 公園・緑地
 10
47.724692
 20
-108.236625
  0
VERTEX
  8
30 公園・緑地
 10
55.687046
 20
-107.857662
  0
VERTEX
  8
30 公園・緑地
 10
57.111947
 20
-109.012810
  0
VERTEX
  8
30 公園・緑地
 10
58.241773
 20
-120.524152
  0
VERTEX
  8
30 公園・緑地
 10
57.110052
 20
-122.033286
  0
VERTEX
  8
30 公園・緑地
 10
40.697858
 20
-123.545692
  0
VERTEX
  8
30 公園・緑地
 10
31.779483
 20
-116.633926
  0
VERTEX
  8
30 公園・緑地
 10
33.758359
 20
-110.638560
  0
VERTEX
  8
30 公園・緑地
 10
35.713118
 20
-108.801279
  0
SEQEND
  0
POLYLINE
  8
30 公園・緑地
 40
0.105834
 41
0.105834
 62
3
 66
1
 10
0
 20
0
 30
0
 70
1
  0
VERTEX
  8
30 公園・緑地
 10
46.649298
 20
-16.245106
  0
VERTEX
  8
30 公園・緑地
 10
44.569137
 20
-16.231842
  0
VERTEX
  8
30 公園・緑地
 10
43.804321
 20
-16.316075
  0
VERTEX
  8
30 公園・緑地
 10
43.530778
 20
-12.827033
  0
VERTEX
  8
30 公園・緑地
 10
43.578665
 20
-12.842363
  0
VERTEX
  8
30 公園・緑地
 10
46.529753
 20
-12.700080
  0
SEQEND
  0
POLYLINE
  8
30 公園・緑地
 40
0.105834
 41
0.105834
 62
3
 66
1
 10
0
 20
0
 30
0
 70
1
  0
VERTEX
  8
30 公園・緑地
 10
5.097395
 20
-14.493780
  0
VERTEX
  8
30 公園・緑地
 10
3.073734
 20
-14.663625
  0
VERTEX
  8
30 公園・緑地
 10
2.852902
 20
-10.168436
  0
VERTEX
  8
30 公園・緑地
 10
4.833499
 20
-10.100050
  0
SEQEND
  0
POLYLINE
  8
30 公園・緑地
 40
0.105834
 41
0.105834
 62
3
 66
1
 10
0
 20
0
 30
0
 70
1
  0
VERTEX
  8
30 公園・緑地
 10
25.589125
 20
-59.766582
  0
VERTEX
  8
30 公園・緑地
 10
25.183462
 20
-55.476205
  0
VERTEX
  8
30 公園・緑地
 10
30.273451
 20
-54.962022
  0
VERTEX
  8
30 公園・緑地
 10
30.645695
 20
-59.209162
  0
SEQEND
  0
POLYLINE
  8
30 公園・緑地
 40
0.105834
 41
0.105834
 62
3
 66
1
 10
0
 20
0
 30
0
 70
1
  0
VERTEX
  8
30 公園・緑地
 10
3.574654
 20
-56.936074
  0
VERTEX
  8
30 公園・緑地
 10
1.671743
 20
-56.904379
  0
VERTEX
  8
30 公園・緑地
 10
1.810065
 20
-53.350051
  0
VERTEX
  8
30 公園・緑地
 10
3.703501
 20
-53.189164
  0
SEQEND
  0
POLYLINE
  8
30 公園・緑地
 40
0.105834
 41
0.105834
 62
3
 66
1
 10
0
 20
0
 30
0
 70
1
  0
VERTEX
  8
30 公園・緑地
 10
-12.280465
 20
-48.202013
  0
VERTEX
  8
30 公園・緑地
 10
-21.859785
 20
-45.915316
  0
VERTEX
  8
30 公園・緑地
 10
-20.529798
 20
-40.124763
  0
VERTEX
  8
30 公園・緑地
 10
-10.975110
 20
-42.344452
  0
SEQEND
  0
POLYLINE
  8
30 公園・緑地
 40
0.105834
 41
0.105834
 62
3
 66
1
 10
0
 20
0
 30
0
 70
1
  0
VERTEX
  8
30 公園・緑地
 10
58.620736
 20
-31.020524
  0
VERTEX
  8
30 公園・緑地
 10
58.523239
 20
-34.626528
  0
VERTEX
  8
30 公園・緑地
 10
56.286325
 20
-34.858901
  0
VERTEX
  8
30 公園・緑地
 10
55.755432
 20
-30.851886
  0
SEQEND
  0
POLYLINE
  8
30 公園・緑地
 40
0.105834
 41
0.105834
 62
3
 66
1
 10
0
 20
0
 30
0
 70
1
  0
VERTEX
  8
30 公園・緑地
 10
18.993448
 20
-73.549462
  0
VERTEX
  8
30 公園・緑地
 10
23.112947
 20
-73.565827
  0
VERTEX
  8
30 公園・緑地
 10
23.176165
 20
-71.227798
  0
VERTEX
  8
30 公園・緑地
 10
22.000174
 20
-71.110147
  0
VERTEX
  8
30 公園・緑地
 10
21.897509
 20
-68.436392
  0
VERTEX
  8
30 公園・緑地
 10
19.117644
 20
-68.592283
  0
SEQEND
  0
POLYLINE
  8
30 公園・緑地
 40
0.105834
 41
0.105834
 62
3
 66
1
 10
0
 20
0
 30
0
 70
1
  0
VERTEX
  8
30 公園・緑地
 10
-2.812335
 20
-73.773050
  0
VERTEX
  8
30 公園・緑地
 10
-1.283220
 20
-74.167516
  0
VERTEX
  8
30 公園・緑地
 10
-1.283220
 20
-78.510776
  0
VERTEX
  8
30 公園・緑地
 10
0.833460
 20
-78.554873
  0
VERTEX
  8
30 公園・緑地
 10
0.833460
 20
-72.521267
  0
VERTEX
  8
30 公園・緑地
 10
-2.553693
 20
-71.872724
  0
SEQEND
  0
POLYLINE
  8
30 公園・緑地
 40
0.105834
 41
0.105834
 62
3
 66
1
 10
0
 20
0
 30
0
 70
1
  0
VERTEX
  8
30 公園・緑地
 10
20.824355
 20
-37.831176
  0
VERTEX
  8
30 公園・緑地
 10
19.766015
 20
-37.831176
  0
VERTEX
  8
30 公園・緑地
 10
19.589281
 20
-35.060613
  0
VERTEX
  8
30 公園・緑地
 10
16.905190
 20
-35.384282
  0
VERTEX
  8
30 公園・緑地
 10
17.061254
 20
-37.831176
  0
VERTEX
  8
30 公園・緑地
 10
18.119594
 20
-37.831176
  0
VERTEX
  8
30 公園・緑地
 10
18.203655
 20
-40.347490
  0
VERTEX
  8
30 公園・緑地
 10
20.898425
 20
-40.056033
  0
SEQEND
  0
POLYLINE
  8
30 公園・緑地
 40
0.105834
 41
0.105834
 62
3
 66
1
 10
0
 20
0
 30
0
 70
1
  0
VERTEX
  8
30 公園・緑地
 10
26.586314
 20
-24.660838
  0
VERTEX
  8
30 公園・緑地
 10
25.527974
 20
-24.660838
  0
VERTEX
  8
30 公園・緑地
 10
25.370015
 20
-23.634365
  0
VERTEX
  8
30 公園・緑地
 10
22.208259
 20
-23.995758
  0
VERTEX
  8
30 公園・緑地
 10
22.301622
 20
-24.981578
  0
VERTEX
  8
30 公園・緑地
 10
24.352155
 20
-24.896139
  0
VERTEX
  8
30 公園・緑地
 10
24.557140
 20
-27.219010
  0
VERTEX
  8
30 公園・緑地
 10
26.856411
 20
-26.956147
  0
SEQEND
  0
POLYLINE
  8
30 公園・緑地
 40
0.105834
 41
0.105834
 62
3
 66
1
 10
0
 20
0
 30
0
 70
1
  0
VERTEX
  8
30 公園・緑地
 10
56.455135
 20
-19.721918
  0
VERTEX
  8
30 公園・緑地
 10
54.220805
 20
-19.957219
  0
VERTEX
  8
30 公園・緑地
 10
54.477294
 20
-22.073555
  0
VERTEX
  8
30 公園・緑地
 10
56.755033
 20
-21.821889
  0
SEQEND
  0
POLYLINE
  8
30 公園・緑地
 40
0.105834
 41
0.105834
 62
3
 66
1
 10
0
 20
0
 30
0
 70
1
  0
VERTEX
  8
30 公園・緑地
 10
61.706355
 20
-45.786469
  0
VERTEX
  8
30 公園・緑地
 10
58.689294
 20
-45.945116
  0
VERTEX
  8
30 公園・緑地
 10
58.966626
 20
-49.135639
  0
VERTEX
  8
30 公園・緑地
 10
61.947341
 20
-48.888969
  0
SEQEND
  0
POLYLINE
  8
30 公園・緑地
 40
0.105834
 41
0.105834
 62
3
 66
1
 10
0
 20
0
 30
0
  0
VERTEX
  8
30 公園・緑地
 10
78.317505
 20
-143.769047
  0
VERTEX
  8
30 公園・緑地
 10
77.977471
 20
-140.668958
  0
VERTEX
  8
30 公園・緑地
 10
77.039022
 20
-139.897252
  0
VERTEX
  8
30 公園・緑地
 10
64.012344
 20
-141.143178
  0
VERTEX
  8
30 公園・緑地
 10
65.392114
 20
-156.012476
  0
VERTEX
  8
30 公園・緑地
 10
57.942048
 20
-156.775570
  0
VERTEX
  8
30 公園・緑地
 10
45.842452
 20
-158.038894
  0
VERTEX
  8
30 公園・緑地
 10
46.013846
 20
-159.787291
  0
SEQEND
  0
POLYLINE
  8
30 公園・緑地
 40
0.105834
 41
0.105834
 62
3
 66
1
 10
0
 20
0
 30
0
  0
VERTEX
  8
30 公園・緑地
 10
40.592093
 20
-159.787291
  0
VERTEX
  8
30 公園・緑地
 10
40.509410
 20
-158.949439
  0
VERTEX
  8
30 公園・緑地
 10
36.464154
 20
-159.187669
  0
VERTEX
  8
30 公園・緑地
 10
36.487236
 20
-159.787291
  0
SEQEND
  0
POLYLINE
  8
30 公園・緑地
 40
0.105834
 41
0.105834
 62
3
 66
1
 10
0
 20
0
 30
0
  0
VERTEX
  8
30 公園・緑地
 10
27.104976
 20
-159.787291
  0
VERTEX
  8
30 公園・緑地
 10
26.468835
 20
-153.425538
  0
VERTEX
  8
30 公園・緑地
 10
27.291874
 20
-151.426509
  0
VERTEX
  8
30 公園・緑地
 10
27.409525
 20
-149.544958
  0
VERTEX
  8
30 公園・緑地
 10
27.997434
 20
-148.133838
  0
VERTEX
  8
30 公園・緑地
 10
27.997434
 20
-143.077267
  0
VERTEX
  8
30 公園・緑地
 10
30.584545
 20
-130.965269
  0
VERTEX
  8
30 公園・緑地
 10
33.801595
 20
-124.714965
  0
VERTEX
  8
30 公園・緑地
 10
31.543665
 20
-122.935217
  0
VERTEX
  8
30 公園・緑地
 10
29.291075
 20
-128.848589
  0
VERTEX
  8
30 公園・緑地
 10
25.057715
 20
-143.900478
  0
VERTEX
  8
30 公園・緑地
 10
23.782677
 20
-159.787291
  0
SEQEND
  0
POLYLINE
  8
30 公園・緑地
 40
0.105834
 41
0.105834
 62
3
 66
1
 10
0
 20
0
 30
0
 70
1
  0
VERTEX
  8
30 公園・緑地
 10
-35.530355
 20
-113.442369
  0
VERTEX
  8
30 公園・緑地
 10
-38.292650
 20
-113.024304
  0
VERTEX
  8
30 公園・緑地
 10
-38.560335
 20
-114.737389
  0
VERTEX
  8
30 公園・緑地
 10
-35.855660
 20
-115.207819
  0
SEQEND
  0
POLYLINE
  8
30 公園・緑地
 40
0.105834
 41
0.105834
 62
3
 66
1
 10
0
 20
0
 30
0
 70
1
  0
VERTEX
  8
30 公園・緑地
 10
-39.609632
 20
-142.890025
  0
VERTEX
  8
30 公園・緑地
 10
-33.649838
 20
-143.295515
  0
VERTEX
  8
30 公園・緑地
 10
-34.174443
 20
-151.689716
  0
VERTEX
  8
30 公園・緑地
 10
-40.205723
 20
-151.306102
  0
SEQEND
  0
POLYLINE
  8
30 公園・緑地
 40
0.105834
 41
0.105834
 62
3
 66
1
 10
0
 20
0
 30
0
 70
1
  0
VERTEX
  8
30 公園・緑地
 10
6.937260
 20
-130.205793
  0
VERTEX
  8
30 公園・緑地
 10
-5.405389
 20
-126.848181
  0
VERTEX
  8
30 公園・緑地
 10
-4.635577
 20
-123.930856
  0
VERTEX
  8
30 公園・緑地
 10
7.740145
 20
-127.256600
  0
SEQEND
  0
POLYLINE
  8
30 公園・緑地
 40
0.105834
 41
0.105834
 62
3
 66
1
 10
0
 20
0
 30
0
  0
VERTEX
  8
30 公園・緑地
 10
6.869391
 20
-159.787291
  0
VERTEX
  8
30 公園・緑地
 10
7.253694
 20
-156.867727
  0
VERTEX
  8
30 公園・緑地
 10
10.742220
 20
-157.617729
  0
VERTEX
  8
30 公園・緑地
 10
10.421479
 20
-159.787291
  0
SEQEND
  0
POLYLINE
  8
30 公園・緑地
 40
0.105834
 41
0.105834
 62
3
 66
1
 10
0
 20
0
 30
0
 70
1
  0
VERTEX
  8
30 公園・緑地
 10
-68.492892
 20
-141.489413
  0
VERTEX
  8
30 公園・緑地
 10
-68.463350
 20
-139.853671
  0
VERTEX
  8
30 公園・緑地
 10
-61.232996
 20
-140.008357
  0
VERTEX
  8
30 公園・緑地
 10
-61.290616
 20
-146.685511
  0
VERTEX
  8
30 公園・緑地
 10
-64.607402
 20
-146.328596
  0
VERTEX
  8
30 公園・緑地
 10
-64.607402
 20
-141.489413
  0
SEQEND
  0
POLYLINE
  8
30 公園・緑地
 40
0.105834
 41
0.105834
 62
3
 66
1
 10
0
 20
0
 30
0
  0
VERTEX
  8
30 公園・緑地
 10
-71.687118
 20
-113.714361
  0
VERTEX
  8
30 公園・緑地
 10
-68.536386
 20
-114.317946
  0
VERTEX
  8
30 公園・緑地
 10
-68.528807
 20
-111.662105
  0
VERTEX
  8
30 公園・緑地
 10
-71.687118
 20
-111.044223
  0
SEQEND
  0
POLYLINE
  8
30 公園・緑地
 40
0.105834
 41
0.105834
 62
3
 66
1
 10
0
 20
0
 30
0
  0
VERTEX
  8
30 公園・緑地
 10
-48.791903
 20
-9.697833
  0
VERTEX
  8
30 公園・緑地
 10
-50.006737
 20
-19.341232
  0
VERTEX
  8
30 公園・緑地
 10
-65.136572
 20
-18.780540
  0
VERTEX
  8
30 公園・緑地
 10
-71.687118
 20
-18.222947
  0
SEQEND
  0
POLYLINE
  8
30 公園・緑地
 40
0.105834
 41
0.105834
 62
3
 66
1
 10
0
 20
0
 30
0
 70
1
  0
VERTEX
  8
30 公園・緑地
 10
-68.175855
 20
-66.475603
  0
VERTEX
  8
30 公園・緑地
 10
-67.964324
 20
-72.825471
  0
VERTEX
  8
30 公園・緑地
 10
-67.458926
 20
-72.903158
  0
VERTEX
  8
30 公園・緑地
 10
-60.733626
 20
-73.149140
  0
VERTEX
  8
30 公園・緑地
 10
-60.234860
 20
-68.826379
  0
VERTEX
  8
30 公園・緑地
 10
-67.488209
 20
-66.464923
  0
SEQEND
  0
POLYLINE
  8
31 地形
 40
0.035278
 41
0.035278
 66
1
 10
0
 20
0
 30
0
  0
VERTEX
  8
31 地形
 10
74.376635
 20
-9.697833
  0
VERTEX
  8
31 地形
 10
74.564394
 20
-21.338884
  0
VERTEX
  8
31 地形
 10
74.369400
 20
-23.428175
  0
VERTEX
  8
31 地形
 10
73.704148
 20
-25.090272
  0
VERTEX
  8
31 地形
 10
73.197371
 20
-26.101414
  0
VERTEX
  8
31 地形
 10
72.100102
 20
-27.244503
  0
VERTEX
  8
31 地形
 10
70.326555
 20
-28.774136
  0
VERTEX
  8
31 地形
 10
68.351125
 20
-30.459831
  0
VERTEX
  8
31 地形
 10
66.327119
 20
-32.605450
  0
VERTEX
  8
31 地形
 10
60.982019
 20
-38.079742
  0
VERTEX
  8
31 地形
 10
57.719149
 20
-40.477199
  0
VERTEX
  8
31 地形
 10
55.513585
 20
-41.614776
  0
VERTEX
  8
31 地形
 10
52.397476
 20
-43.003331
  0
VERTEX
  8
31 地形
 10
49.021951
 20
-44.692989
  0
VERTEX
  8
31 地形
 10
46.975551
 20
-46.008679
  0
VERTEX
  8
31 地形
 10
44.859904
 20
-47.544857
  0
VERTEX
  8
31 地形
 10
43.034681
 20
-49.340796
  0
VERTEX
  8
31 地形
 10
38.889516
 20
-54.235619
  0
VERTEX
  8
31 地形
 10
37.743498
 20
-55.894615
  0
VERTEX
  8
31 地形
 10
35.093514
 20
-59.502169
  0
VERTEX
  8
31 地形
 10
33.591443
 20
-62.446194
  0
VERTEX
  8
31 地形
 10
32.508126
 20
-64.819363
  0
VERTEX
  8
31 地形
 10
31.604127
 20
-67.002189
  0
VERTEX
  8
31 地形
 10
30.949899
 20
-69.053757
  0
VERTEX
  8
31 地形
 10
30.614689
 20
-70.705001
  0
VERTEX
  8
31 地形
 10
30.555089
 20
-71.962814
  0
VERTEX
  8
31 地形
 10
31.030171
 20
-79.783746
  0
VERTEX
  8
31 地形
 10
31.369170
 20
-83.083135
  0
VERTEX
  8
31 地形
 10
31.779828
 20
-86.881894
  0
VERTEX
  8
31 地形
 10
33.107404
 20
-93.138054
  0
VERTEX
  8
31 地形
 10
33.332887
 20
-95.147246
  0
VERTEX
  8
31 地形
 10
33.240213
 20
-96.700478
  0
VERTEX
  8
31 地形
 10
33.050215
 20
-97.688365
  0
VERTEX
  8
31 地形
 10
29.569613
 20
-108.298292
  0
VERTEX
  8
31 地形
 10
28.942602
 20
-109.289453
  0
VERTEX
  8
31 地形
 10
26.476070
 20
-117.777015
  0
VERTEX
  8
31 地形
 10
19.360870
 20
-144.924022
  0
VERTEX
  8
31 地形
 10
17.366836
 20
-159.787291
  0
SEQEND
  0
POLYLINE
  8
31 地形
 40
0.035278
 41
0.035278
 66
1
 10
0
 20
0
 30
0
  0
VERTEX
  8
31 地形
 10
19.937582
 20
-159.787291
  0
VERTEX
  8
31 地形
 10
21.802769
 20
-145.587207
  0
VERTEX
  8
31 地形
 10
28.861469
 20
-119.610162
  0
VERTEX
  8
31 地形
 10
31.306124
 20
-110.623402
  0
VERTEX
  8
31 地形
 10
30.935085
 20
-110.214294
  0
VERTEX
  8
31 地形
 10
34.290974
 20
-98.034771
  0
VERTEX
  8
31 地形
 10
34.588632
 20
-96.668955
  0
VERTEX
  8
31 地形
 10
34.635486
 20
-95.578920
  0
VERTEX
  8
31 地形
 10
34.447727
 20
-93.304109
  0
VERTEX
  8
31 地形
 10
33.259850
 20
-86.847787
  0
VERTEX
  8
31 地形
 10
32.759964
 20
-83.031286
  0
VERTEX
  8
31 地形
 10
32.451281
 20
-79.635779
  0
VERTEX
  8
31 地形
 10
31.957941
 20
-71.900974
  0
VERTEX
  8
31 地形
 10
31.984296
 20
-70.561168
  0
VERTEX
  8
31 地形
 10
32.300385
 20
-69.199830
  0
VERTEX
  8
31 地形
 10
32.804061
 20
-67.464869
  0
VERTEX
  8
31 地形
 10
33.597472
 20
-65.410201
  0
VERTEX
  8
31 地形
 10
34.700254
 20
-63.055119
  0
VERTEX
  8
31 地形
 10
36.287764
 20
-60.056489
  0
VERTEX
  8
31 地形
 10
37.739536
 20
-58.114821
  0
VERTEX
  8
31 地形
 10
39.286394
 20
-56.175909
  0
VERTEX
  8
31 地形
 10
44.181216
 20
-50.222746
  0
VERTEX
  8
31 地形
 10
46.062939
 20
-48.571329
  0
VERTEX
  8
31 地形
 10
47.797211
 20
-47.091824
  0
VERTEX
  8
31 地形
 10
49.737501
 20
-45.901191
  0
VERTEX
  8
31 地形
 10
53.111305
 20
-44.391541
  0
VERTEX
  8
31 地形
 10
56.716620
 20
-42.771647
  0
VERTEX
  8
31 地形
 10
58.689294
 20
-41.711929
  0
VERTEX
  8
31 地形
 10
61.925120
 20
-39.137220
  0
VERTEX
  8
31 地形
 10
67.519646
 20
-33.391971
  0
VERTEX
  8
31 地形
 10
69.104572
 20
-31.677680
  0
VERTEX
  8
31 地形
 10
70.231470
 20
-30.584545
  0
VERTEX
  8
31 地形
 10
71.418657
 20
-29.590973
  0
VERTEX
  8
31 地形
 10
72.413952
 20
-28.703683
  0
VERTEX
  8
31 地形
 10
73.561520
 20
-27.710628
  0
VERTEX
  8
31 地形
 10
74.447949
 20
-26.537910
  0
VERTEX
  8
31 地形
 10
75.134216
 20
-25.166064
  0
VERTEX
  8
31 地形
 10
75.640304
 20
-23.734618
  0
VERTEX
  8
31 地形
 10
75.855968
 20
-22.254251
  0
VERTEX
  8
31 地形
 10
75.941752
 20
-20.703949
  0
VERTEX
  8
31 地形
 10
75.830647
 20
-9.697833
  0
SEQEND
  0
POLYLINE
  8
32 海・河川
 40
0.035278
 41
0.035278
 62
150
 66
1
 10
0
 20
0
 30
0
  0
VERTEX
  8
32 海・河川
 10
75.830647
 20
-9.697833
  0
VERTEX
  8
32 海・河川
 10
75.941752
 20
-20.703949
  0
VERTEX
  8
32 海・河川
 10
75.855968
 20
-22.254251
  0
VERTEX
  8
32 海・河川
 10
75.640304
 20
-23.734618
  0
VERTEX
  8
32 海・河川
 10
75.134216
 20
-25.166064
  0
VERTEX
  8
32 海・河川
 10
74.447949
 20
-26.537910
  0
VERTEX
  8
32 海・河川
 10
73.561520
 20
-27.710628
  0
VERTEX
  8
32 海・河川
 10
72.413952
 20
-28.703683
  0
VERTEX
  8
32 海・河川
 10
71.418657
 20
-29.590973
  0
VERTEX
  8
32 海・河川
 10
70.231470
 20
-30.584545
  0
VERTEX
  8
32 海・河川
 10
69.104572
 20
-31.677680
  0
VERTEX
  8
32 海・河川
 10
67.519646
 20
-33.391971
  0
VERTEX
  8
32 海・河川
 10
61.925120
 20
-39.137220
  0
VERTEX
  8
32 海・河川
 10
58.689294
 20
-41.711929
  0
VERTEX
  8
32 海・河川
 10
56.716620
 20
-42.771647
  0
VERTEX
  8
32 海・河川
 10
53.111305
 20
-44.391541
  0
VERTEX
  8
32 海・河川
 10
49.737501
 20
-45.901191
  0
VERTEX
  8
32 海・河川
 10
47.797211
 20
-47.091824
  0
VERTEX
  8
32 海・河川
 10
46.062939
 20
-48.571329
  0
VERTEX
  8
32 海・河川
 10
44.181216
 20
-50.222746
  0
VERTEX
  8
32 海・河川
 10
39.286394
 20
-56.175909
  0
VERTEX
  8
32 海・河川
 10
37.739536
 20
-58.114821
  0
VERTEX
  8
32 海・河川
 10
36.287764
 20
-60.056489
  0
VERTEX
  8
32 海・河川
 10
34.700254
 20
-63.055119
  0
VERTEX
  8
32 海・河川
 10
33.597472
 20
-65.410201
  0
VERTEX
  8
32 海・河川
 10
32.804061
 20
-67.464869
  0
VERTEX
  8
32 海・河川
 10
32.300385
 20
-69.199830
  0
VERTEX
  8
32 海・河川
 10
31.984296
 20
-70.561168
  0
VERTEX
  8
32 海・河川
 10
31.957941
 20
-71.900974
  0
VERTEX
  8
32 海・河川
 10
32.451281
 20
-79.635779
  0
VERTEX
  8
32 海・河川
 10
32.759964
 20
-83.031286
  0
VERTEX
  8
32 海・河川
 10
33.259850
 20
-86.847787
  0
VERTEX
  8
32 海・河川
 10
34.447727
 20
-93.304109
  0
VERTEX
  8
32 海・河川
 10
34.635486
 20
-95.578920
  0
VERTEX
  8
32 海・河川
 10
34.588632
 20
-96.668955
  0
VERTEX
  8
32 海・河川
 10
34.290974
 20
-98.034771
  0
VERTEX
  8
32 海・河川
 10
30.935085
 20
-110.214294
  0
VERTEX
  8
32 海・河川
 10
31.306124
 20
-110.623402
  0
VERTEX
  8
32 海・河川
 10
28.861469
 20
-119.610162
  0
VERTEX
  8
32 海・河川
 10
21.802769
 20
-145.587207
  0
VERTEX
  8
32 海・河川
 10
19.937582
 20
-159.787291
  0
SEQEND
  0
POLYLINE
  8
32 海・河川
 40
0.035278
 41
0.035278
 62
150
 66
1
 10
0
 20
0
 30
0
  0
VERTEX
  8
32 海・河川
 10
17.366836
 20
-159.787291
  0
VERTEX
  8
32 海・河川
 10
19.360870
 20
-144.924022
  0
VERTEX
  8
32 海・河川
 10
26.476070
 20
-117.777015
  0
VERTEX
  8
32 海・河川
 10
28.942602
 20
-109.289453
  0
VERTEX
  8
32 海・河川
 10
29.569613
 20
-108.298292
  0
VERTEX
  8
32 海・河川
 10
33.050215
 20
-97.688365
  0
VERTEX
  8
32 海・河川
 10
33.240213
 20
-96.700478
  0
VERTEX
  8
32 海・河川
 10
33.332887
 20
-95.147246
  0
VERTEX
  8
32 海・河川
 10
33.107404
 20
-93.138054
  0
VERTEX
  8
32 海・河川
 10
31.779828
 20
-86.881894
  0
VERTEX
  8
32 海・河川
 10
31.369170
 20
-83.083135
  0
VERTEX
  8
32 海・河川
 10
31.030171
 20
-79.783746
  0
VERTEX
  8
32 海・河川
 10
30.555089
 20
-71.962814
  0
VERTEX
  8
32 海・河川
 10
30.614689
 20
-70.705001
  0
VERTEX
  8
32 海・河川
 10
30.949899
 20
-69.053757
  0
VERTEX
  8
32 海・河川
 10
31.604127
 20
-67.002189
  0
VERTEX
  8
32 海・河川
 10
32.508126
 20
-64.819363
  0
VERTEX
  8
32 海・河川
 10
33.591443
 20
-62.446194
  0
VERTEX
  8
32 海・河川
 10
35.093514
 20
-59.502169
  0
VERTEX
  8
32 海・河川
 10
37.743498
 20
-55.894615
  0
VERTEX
  8
32 海・河川
 10
38.889516
 20
-54.235619
  0
VERTEX
  8
32 海・河川
 10
43.034681
 20
-49.340796
  0
VERTEX
  8
32 海・河川
 10
44.859904
 20
-47.544857
  0
VERTEX
  8
32 海・河川
 10
46.975551
 20
-46.008679
  0
VERTEX
  8
32 海・河川
 10
49.021951
 20
-44.692989
  0
VERTEX
  8
32 海・河川
 10
52.397476
 20
-43.003331
  0
VERTEX
  8
32 海・河川
 10
55.513585
 20
-41.614776
  0
VERTEX
  8
32 海・河川
 10
57.719149
 20
-40.477199
  0
VERTEX
  8
32 海・河川
 10
60.982019
 20
-38.079742
  0
VERTEX
  8
32 海・河川
 10
66.327119
 20
-32.605450
  0
VERTEX
  8
32 海・河川
 10
68.351125
 20
-30.459831
  0
VERTEX
  8
32 海・河川
 10
70.326555
 20
-28.774136
  0
VERTEX
  8
32 海・河川
 10
72.100102
 20
-27.244503
  0
VERTEX
  8
32 海・河川
 10
73.197371
 20
-26.101414
  0
VERTEX
  8
32 海・河川
 10
73.704148
 20
-25.090272
  0
VERTEX
  8
32 海・河川
 10
74.369400
 20
-23.428175
  0
VERTEX
  8
32 海・河川
 10
74.564394
 20
-21.338884
  0
VERTEX
  8
32 海・河川
 10
74.376635
 20
-9.697833
  0
SEQEND
  0
ENDSEC
  0
EOF
