  0
SECTION
  2
HEADER
  9
$ACADVER
  1
AC1009
  9
$LUNITS
 70
2
  9
$LUPREC
 70
4
  9
$LTSCALE
 40
1.0
  9
$EXTMIN
 10
-11.305841
 20
-87.628967
 30
0
  9
$EXTMAX
 10
192.600999
 20
192.478353
 30
0
  0
ENDSEC
  0
SECTION
  2
TABLES
  0
TABLE
  2
LTYPE
 70
256
  0
LTYPE
  2
AIGENLINE001
 70
64
  3
generate AI->DXF Converter
 72
65
 73
2
 40
0.705560
 49
0.352780
 49
-0.352780
  0
LTYPE
  2
AIGENLINE002
 70
64
  3
generate AI->DXF Converter
 72
65
 73
0
 40
0.000000
  0
LTYPE
  2
AIGENLINE003
 70
64
  3
generate AI->DXF Converter
 72
65
 73
2
 40
2.116680
 49
1.763900
 49
-0.352780
  0
ENDTAB
  0
TABLE
  2
LAYER
 70
32
  0
LAYER
  2
01 グリッド
 70
64
 62
7
  6
CONTINUOUS
  0
LAYER
  2
02 市区名
 70
64
 62
7
  6
CONTINUOUS
  0
LAYER
  2
03 施設名・公園名
 70
64
 62
7
  6
CONTINUOUS
  0
LAYER
  2
04 通称名・高速名
 70
64
 62
7
  6
CONTINUOUS
  0
LAYER
  2
05 町名
 70
64
 62
7
  6
CONTINUOUS
  0
LAYER
  2
06 駅名・鉄道名
 70
64
 62
7
  6
CONTINUOUS
  0
LAYER
  2
07 街区符号
 70
64
 62
7
  6
CONTINUOUS
  0
LAYER
  2
08 地下鉄
 70
64
 62
7
  6
CONTINUOUS
  0
LAYER
  2
09 鉄道地下
 70
64
 62
7
  6
CONTINUOUS
  0
LAYER
  2
10 都道府県界
 70
64
 62
7
  6
CONTINUOUS
  0
LAYER
  2
11 市界
 70
64
 62
7
  6
CONTINUOUS
  0
LAYER
  2
12 区界
 70
64
 62
7
  6
CONTINUOUS
  0
LAYER
  2
13 町界
 70
64
 62
7
  6
CONTINUOUS
  0
LAYER
  2
14 公・官庁施設
 70
64
 62
7
  6
CONTINUOUS
  0
LAYER
  2
15 病院
 70
64
 62
7
  6
CONTINUOUS
  0
LAYER
  2
16 学校
 70
64
 62
7
  6
CONTINUOUS
  0
LAYER
  2
17 その他施設
 70
64
 62
7
  6
CONTINUOUS
  0
LAYER
  2
18 高速分離帯
 70
64
 62
7
  6
CONTINUOUS
  0
LAYER
  2
19 鉄道駅
 70
64
 62
7
  6
CONTINUOUS
  0
LAYER
  2
20 鉄道
 70
64
 62
7
  6
CONTINUOUS
  0
LAYER
  2
21 デッキ・歩道橋
 70
64
 62
7
  6
CONTINUOUS
  0
LAYER
  2
22 一般道トンネル
 70
64
 62
7
  6
CONTINUOUS
  0
LAYER
  2
23 園路・他敷地道
 70
64
 62
7
  6
CONTINUOUS
  0
LAYER
  2
24 立体交差
 70
64
 62
7
  6
CONTINUOUS
  0
LAYER
  2
25 分離帯等
 70
64
 62
7
  6
CONTINUOUS
  0
LAYER
  2
26 道路
 70
64
 62
7
  6
CONTINUOUS
  0
LAYER
  2
27 鉄道下駅
 70
64
 62
7
  6
CONTINUOUS
  0
LAYER
  2
28 鉄道下
 70
64
 62
7
  6
CONTINUOUS
  0
LAYER
  2
29 川・池
 70
64
 62
7
  6
CONTINUOUS
  0
LAYER
  2
30 公園・緑地
 70
64
 62
7
  6
CONTINUOUS
  0
LAYER
  2
31 地形
 70
64
 62
7
  6
CONTINUOUS
  0
LAYER
  2
32 海・河川
 70
64
 62
7
  6
CONTINUOUS
  0
ENDTAB
  0
TABLE
  2
STYLE
 70
6
  0
STYLE
  2
STANDARD
 70
0
 40
0
 50
0
 71
0
 41
0
 42
0
  3
TXT
  4
BIGFONT
  0
ENDTAB
  0
ENDSEC
  0
SECTION
  2
BLOCKS
  0
ENDSEC
  0
SECTION
  2
ENTITIES
  0
POLYLINE
  8
01 グリッド
  6
AIGENLINE001
 40
0.070556
 41
0.070556
 62
251
 66
1
 10
0
 20
0
 30
0
 70
128
  0
VERTEX
  8
01 グリッド
 10
169.718014
 20
131.555762
  0
VERTEX
  8
01 グリッド
 10
19.710032
 20
131.555762
  0
SEQEND
  0
POLYLINE
  8
01 グリッド
  6
AIGENLINE001
 40
0.070556
 41
0.070556
 62
251
 66
1
 10
0
 20
0
 30
0
 70
128
  0
VERTEX
  8
01 グリッド
 10
169.718014
 20
31.555206
  0
VERTEX
  8
01 グリッド
 10
19.710032
 20
31.555206
  0
SEQEND
  0
POLYLINE
  8
01 グリッド
  6
AIGENLINE001
 40
0.070556
 41
0.070556
 62
251
 66
1
 10
0
 20
0
 30
0
 70
128
  0
VERTEX
  8
01 グリッド
 10
169.718014
 20
81.555656
  0
VERTEX
  8
01 グリッド
 10
19.710032
 20
81.555656
  0
SEQEND
  0
POLYLINE
  8
01 グリッド
  6
AIGENLINE001
 40
0.070556
 41
0.070556
 62
251
 66
1
 10
0
 20
0
 30
0
 70
128
  0
VERTEX
  8
01 グリッド
 10
69.707812
 20
-18.254987
  0
VERTEX
  8
01 グリッド
 10
69.707812
 20
131.571006
  0
SEQEND
  0
POLYLINE
  8
01 グリッド
  6
AIGENLINE001
 40
0.070556
 41
0.070556
 62
251
 66
1
 10
0
 20
0
 30
0
 70
128
  0
VERTEX
  8
01 グリッド
 10
119.708176
 20
-18.254987
  0
VERTEX
  8
01 グリッド
 10
119.708176
 20
131.571006
  0
SEQEND
  0
POLYLINE
  8
01 グリッド
  6
AIGENLINE001
 40
0.070556
 41
0.070556
 62
251
 66
1
 10
0
 20
0
 30
0
 70
128
  0
VERTEX
  8
01 グリッド
 10
169.708367
 20
-18.254987
  0
VERTEX
  8
01 グリッド
 10
169.708367
 20
131.571006
  0
SEQEND
  0
POLYLINE
  8
01 グリッド
  6
AIGENLINE001
 40
0.070556
 41
0.070556
 62
251
 66
1
 10
0
 20
0
 30
0
 70
128
  0
VERTEX
  8
01 グリッド
 10
169.718014
 20
-18.252575
  0
VERTEX
  8
01 グリッド
 10
19.710032
 20
-18.252575
  0
SEQEND
  0
POLYLINE
  8
01 グリッド
 40
0.352780
 41
0.352780
 66
1
 10
0
 20
0
 30
0
 70
1
  0
VERTEX
  8
01 グリッド
 10
19.710032
 20
-18.254987
  0
VERTEX
  8
01 グリッド
 10
169.718014
 20
-18.254987
  0
VERTEX
  8
01 グリッド
 10
169.718014
 20
131.571006
  0
VERTEX
  8
01 グリッド
 10
19.710032
 20
131.571006
  0
SEQEND
  0
TEXT
  8
02 市区名
 10
75.992739
 20
18.386246
 11
75.992739
 21
18.386246
 40
4.215502
 41
0.500000
 72
1
  1
中央区
  0
TEXT
  8
03 施設名・公園名
 10
37.110802
 20
128.474277
 11
37.110802
 21
128.474277
 40
1.434395
 41
0.500000
 72
1
  1
開平小学校
  0
TEXT
  8
03 施設名・公園名
 10
97.145070
 20
15.656680
 11
97.145070
 21
15.656680
 40
1.434395
 41
0.500000
 72
1
  1
南大江小学校
  0
TEXT
  8
03 施設名・公園名
 10
33.817959
 20
17.110175
 11
33.817959
 21
17.110175
 40
1.434395
 41
0.500000
 72
1
  1
東商業高校
  0
TEXT
  8
03 施設名・公園名
 10
50.986701
 20
25.694373
 11
50.986701
 21
25.694373
 40
1.434395
 41
0.500000
 72
1
  1
中央区役所
  0
TEXT
  8
03 施設名・公園名
 10
72.457016
 20
71.897443
 11
72.457016
 21
71.897443
 40
1.434395
 41
0.500000
 72
1
  1
中大江小学校
  0
TEXT
  8
03 施設名・公園名
 10
110.873345
 20
102.864395
 11
110.873345
 21
102.864395
 40
1.434395
 41
0.500000
 72
1
  1
中央高校
  0
TEXT
  8
03 施設名・公園名
 10
82.242871
 20
105.253670
 11
82.242871
 21
105.253670
 40
1.434395
 41
0.500000
 72
1
  1
大阪肛門病院
  0
TEXT
  8
03 施設名・公園名
 10
126.216519
 20
33.455188
 11
126.216519
 21
33.455188
 40
1.434395
 41
0.500000
 72
1
  1
大阪管区気象台
  0
TEXT
  8
03 施設名・公園名
 10
128.920075
 20
71.994423
 11
128.920075
 21
71.994423
 40
1.434395
 41
0.500000
 72
1
  1
府庁別館
  0
TEXT
  8
03 施設名・公園名
 10
124.948888
 20
92.156626
 11
124.948888
 21
92.156626
 40
1.434395
 41
0.500000
 72
1
  1
法務局
  0
TEXT
  8
03 施設名・公園名
 10
128.418293
 20
110.846043
 11
128.418293
 21
110.846043
 40
1.434395
 41
0.500000
 72
1
  1
大阪合同庁舎第３号館
  0
TEXT
  8
03 施設名・公園名
 10
136.031486
 20
42.895843
 11
136.031486
 21
42.895843
 40
1.434395
 41
0.500000
 72
1
  1
家裁
  0
TEXT
  8
03 施設名・公園名
 10
144.124410
 20
57.483503
 11
144.124410
 21
57.483503
 40
1.434395
 41
0.500000
 72
1
  1
府警本部
  0
TEXT
  8
03 施設名・公園名
 10
140.754741
 20
82.893395
 11
140.754741
 21
82.893395
 40
1.434395
 41
0.500000
 72
1
  1
大阪府庁
  0
TEXT
  8
03 施設名・公園名
 10
137.960062
 20
108.350572
 11
137.960062
 21
108.350572
 40
1.434395
 41
0.500000
 72
1
  1
大阪合同庁舎第１号館
  0
TEXT
  8
03 施設名・公園名
 10
126.854038
 20
44.806850
 11
126.854038
 21
44.806850
 40
1.434395
 41
0.500000
 72
1
  1
東中学校
  0
TEXT
  8
03 施設名・公園名
 10
158.864861
 20
2.249662
 11
158.864861
 21
2.249662
 40
1.434395
 41
0.500000
 72
1
  1
大手前整肢学園
  0
TEXT
  8
03 施設名・公園名
 10
139.355852
 20
94.912892
 11
139.355852
 21
94.912892
 40
1.434395
 41
0.500000
 72
1
  1
大手前高校
  0
TEXT
  8
03 施設名・公園名
 10
139.935492
 20
122.090819
 11
139.935492
 21
122.090819
 40
1.434395
 41
0.500000
 72
1
  1
大阪歯科大学
  0
TEXT
  8
03 施設名・公園名
 10
158.379789
 20
120.948074
 11
158.379789
 21
120.948074
 40
1.434395
 41
0.500000
 72
1
  1
追手門学院高校
  0
TEXT
  8
03 施設名・公園名
 10
141.468914
 20
15.282884
 11
141.468914
 21
15.282884
 40
1.434395
 41
0.500000
 72
1
  1
国立大阪病院
  0
TEXT
  8
03 施設名・公園名
 10
140.051937
 20
115.609262
 11
140.051937
 21
115.609262
 40
1.434395
 41
0.500000
 72
1
  1
大手前病院
  0
TEXT
  8
04 通称名・高速名
 10
39.966115
 20
50.785851
 11
39.966115
 21
50.785851
 40
1.968301
 41
0.500000
 72
1
  1
本町通
  0
TEXT
  8
04 通称名・高速名
 10
62.191255
 20
125.457646
 11
62.191255
 21
125.457646
 40
1.968301
 41
0.500000
 72
1
  1
土佐堀通
  0
TEXT
  8
04 通称名・高速名
 10
50.999620
 20
116.880079
 11
50.999620
 21
116.880079
 40
1.968301
 41
0.500000
 50
89.999990
 72
1
  1
阪神高速1号環状線
  0
TEXT
  8
05 町名
 10
82.986155
 20
123.325118
 11
82.986155
 21
123.325118
 40
2.231262
 41
0.500000
 62
251
 72
1
  1
北浜東
  0
TEXT
  8
05 町名
 10
38.844041
 20
-6.916762
 11
38.844041
 21
-6.916762
 40
2.231262
 41
0.500000
 62
251
 72
1
  1
博労町一丁目
  0
TEXT
  8
05 町名
 10
38.790641
 20
1.972674
 11
38.790641
 21
1.972674
 40
2.231262
 41
0.500000
 62
251
 72
1
  1
南久宝寺町一丁目
  0
TEXT
  8
05 町名
 10
38.817169
 20
10.782872
 11
38.817169
 21
10.782872
 40
2.231262
 41
0.500000
 62
251
 72
1
  1
北久宝寺町一丁目
  0
TEXT
  8
05 町名
 10
38.582212
 20
21.980881
 11
38.582212
 21
21.980881
 40
2.231262
 41
0.500000
 62
251
 72
1
  1
久太郎町一丁目
  0
TEXT
  8
05 町名
 10
38.332958
 20
32.029254
 11
38.332958
 21
32.029254
 40
2.231262
 41
0.500000
 62
251
 72
1
  1
船場中央一丁目
  0
TEXT
  8
05 町名
 10
36.791440
 20
40.491496
 11
36.791440
 21
40.491496
 40
2.231262
 41
0.500000
 62
251
 72
1
  1
南本町一丁目
  0
TEXT
  8
05 町名
 10
34.521452
 20
50.689904
 11
34.521452
 21
50.689904
 40
2.231262
 41
0.500000
 62
251
 72
1
  1
本町一丁目
  0
TEXT
  8
05 町名
 10
34.516285
 20
59.879582
 11
34.516285
 21
59.879582
 40
2.231262
 41
0.500000
 62
251
 72
1
  1
安土町一丁目
  0
TEXT
  8
05 町名
 10
34.531443
 20
69.018875
 11
34.531443
 21
69.018875
 40
2.231262
 41
0.500000
 62
251
 72
1
  1
備後町一丁目
  0
TEXT
  8
05 町名
 10
34.736772
 20
78.159546
 11
34.736772
 21
78.159546
 40
2.231262
 41
0.500000
 62
251
 72
1
  1
瓦町一丁目
  0
TEXT
  8
05 町名
 10
34.641687
 20
87.298667
 11
34.641687
 21
87.298667
 40
2.231262
 41
0.500000
 62
251
 72
1
  1
淡路町一丁目
  0
TEXT
  8
05 町名
 10
34.667008
 20
96.398341
 11
34.667008
 21
96.398341
 40
2.231262
 41
0.500000
 62
251
 72
1
  1
平野町一丁目
  0
TEXT
  8
05 町名
 10
34.592766
 20
105.457621
 11
34.592766
 21
105.457621
 40
2.231262
 41
0.500000
 62
251
 72
1
  1
道修町一丁目
  0
TEXT
  8
05 町名
 10
28.412570
 20
111.375729
 11
28.412570
 21
111.375729
 40
2.231262
 41
0.500000
 62
251
 72
1
  1
伏見町一丁目
  0
TEXT
  8
05 町名
 10
35.368951
 20
116.431008
 11
35.368951
 21
116.431008
 40
2.231262
 41
0.500000
 62
251
 72
1
  1
高麗橋一丁目
  0
TEXT
  8
05 町名
 10
33.106887
 20
125.569526
 11
33.106887
 21
125.569526
 40
2.231262
 41
0.500000
 62
251
 72
1
  1
今橋一丁目
  0
TEXT
  8
05 町名
 10
57.584617
 20
106.830500
 11
57.584617
 21
106.830500
 40
2.231262
 41
0.500000
 62
251
 72
1
  1
東高麗橋
  0
TEXT
  8
05 町名
 10
58.803155
 20
56.188483
 11
58.803155
 21
56.188483
 40
2.231262
 41
0.500000
 62
251
 72
1
  1
本町橋
  0
TEXT
  8
05 町名
 10
58.216452
 20
88.124461
 11
58.216452
 21
88.124461
 40
2.231262
 41
0.500000
 62
251
 72
1
  1
内淡路町三丁目
  0
TEXT
  8
05 町名
 10
59.891295
 20
92.736095
 11
59.891295
 21
92.736095
 40
2.231262
 41
0.500000
 62
251
 72
1
  1
内平野町三丁目
  0
TEXT
  8
05 町名
 10
57.823191
 20
80.682750
 11
57.823191
 21
80.682750
 40
2.231262
 41
0.500000
 62
251
 72
1
  1
大手通三丁目
  0
TEXT
  8
05 町名
 10
63.869717
 20
26.727564
 11
63.869717
 21
26.727564
 40
2.231262
 41
0.500000
 62
251
 72
1
  1
農人橋三丁目
  0
TEXT
  8
05 町名
 10
64.108808
 20
10.216495
 11
64.108808
 21
10.216495
 40
2.231262
 41
0.500000
 62
251
 72
1
  1
材木町
  0
TEXT
  8
05 町名
 10
66.387064
 20
-9.820996
 11
66.387064
 21
-9.820996
 40
2.231262
 41
0.500000
 62
251
 72
1
  1
松屋町住吉
  0
TEXT
  8
05 町名
 10
79.118150
 20
79.487380
 11
79.118150
 21
79.487380
 40
2.231262
 41
0.500000
 62
251
 72
1
  1
大手通二丁目
  0
TEXT
  8
05 町名
 10
79.898469
 20
85.561122
 11
79.898469
 21
85.561122
 40
2.231262
 41
0.500000
 62
251
 72
1
  1
内淡路町二丁目
  0
TEXT
  8
05 町名
 10
79.979085
 20
91.501107
 11
79.979085
 21
91.501107
 40
2.231262
 41
0.500000
 62
251
 72
1
  1
内平野町二丁目
  0
TEXT
  8
05 町名
 10
80.646404
 20
69.498780
 11
80.646404
 21
69.498780
 40
2.231262
 41
0.500000
 62
251
 72
1
  1
糸屋町二丁目
  0
TEXT
  8
05 町名
 10
79.980290
 20
97.330934
 11
79.980290
 21
97.330934
 40
2.231262
 41
0.500000
 62
251
 72
1
  1
船越町二丁目
  0
TEXT
  8
05 町名
 10
80.001478
 20
103.280651
 11
80.001478
 21
103.280651
 40
2.231262
 41
0.500000
 62
251
 72
1
  1
釣鐘町二丁目
  0
TEXT
  8
05 町名
 10
80.205773
 20
63.673345
 11
80.205773
 21
63.673345
 40
2.231262
 41
0.500000
 62
251
 72
1
  1
南新町二丁目
  0
TEXT
  8
05 町名
 10
80.136010
 20
57.453530
 11
80.136010
 21
57.453530
 40
2.231262
 41
0.500000
 62
251
 72
1
  1
徳井町二丁目
  0
TEXT
  8
05 町名
 10
80.459506
 20
109.762726
 11
80.459506
 21
109.762726
 40
2.231262
 41
0.500000
 62
251
 72
1
  1
島町二丁目
  0
TEXT
  8
05 町名
 10
80.242291
 20
50.154361
 11
80.242291
 21
50.154361
 40
2.231262
 41
0.500000
 62
251
 72
1
  1
内本町二丁目
  0
TEXT
  8
05 町名
 10
81.607419
 20
116.287950
 11
81.607419
 21
116.287950
 40
2.231262
 41
0.500000
 62
251
 72
1
  1
石町二丁目
  0
TEXT
  8
05 町名
 10
80.236435
 20
43.174209
 11
80.236435
 21
43.174209
 40
2.231262
 41
0.500000
 62
251
 72
1
  1
鎗屋町二丁目
  0
TEXT
  8
05 町名
 10
80.487928
 20
36.735974
 11
80.487928
 21
36.735974
 40
2.231262
 41
0.500000
 62
251
 72
1
  1
常盤町二丁目
  0
TEXT
  8
05 町名
 10
80.403523
 20
23.641428
 11
80.403523
 21
23.641428
 40
2.231262
 41
0.500000
 62
251
 72
1
  1
農人橋二丁目
  0
TEXT
  8
05 町名
 10
80.081060
 20
9.625313
 11
80.081060
 21
9.625313
 40
2.231262
 41
0.500000
 62
251
 72
1
  1
和泉町二丁目
  0
TEXT
  8
05 町名
 10
80.401456
 20
1.426968
 11
80.401456
 21
1.426968
 40
2.231262
 41
0.500000
 62
251
 72
1
  1
内久宝寺町四丁目
  0
TEXT
  8
05 町名
 10
81.281683
 20
-14.957665
 11
81.281683
 21
-14.957665
 40
2.231262
 41
0.500000
 62
251
 72
1
  1
神崎町
  0
TEXT
  8
05 町名
 10
92.841946
 20
-6.931576
 11
92.841946
 21
-6.931576
 40
2.231262
 41
0.500000
 62
251
 72
1
  1
粉川町
  0
TEXT
  8
05 町名
 10
100.888879
 20
-14.652083
 11
100.888879
 21
-14.652083
 40
2.231262
 41
0.500000
 62
251
 72
1
  1
十二軒町
  0
TEXT
  8
05 町名
 10
101.886412
 20
0.182936
 11
101.886412
 21
0.182936
 40
2.231262
 41
0.500000
 62
251
 72
1
  1
内久宝寺町三丁目
  0
TEXT
  8
05 町名
 10
102.877056
 20
8.206958
 11
102.877056
 21
8.206958
 40
2.231262
 41
0.500000
 62
251
 72
1
  1
和泉町一丁目
  0
TEXT
  8
05 町名
 10
103.050001
 20
21.877183
 11
103.050001
 21
21.877183
 40
2.231262
 41
0.500000
 62
251
 72
1
  1
農人橋一丁目
  0
TEXT
  8
05 町名
 10
103.421729
 20
35.758594
 11
103.421729
 21
35.758594
 40
2.231262
 41
0.500000
 62
251
 72
1
  1
常盤町一丁目
  0
TEXT
  8
05 町名
 10
103.958478
 20
42.520670
 11
103.958478
 21
42.520670
 40
2.231262
 41
0.500000
 62
251
 72
1
  1
鎗屋町一丁目
  0
TEXT
  8
05 町名
 10
104.593758
 20
49.623640
 11
104.593758
 21
49.623640
 40
2.231262
 41
0.500000
 62
251
 72
1
  1
内本町一丁目
  0
TEXT
  8
05 町名
 10
104.127978
 20
56.911097
 11
104.127978
 21
56.911097
 40
2.231262
 41
0.500000
 62
251
 72
1
  1
徳井町一丁目
  0
TEXT
  8
05 町名
 10
103.461348
 20
62.357655
 11
103.461348
 21
62.357655
 40
2.231262
 41
0.500000
 62
251
 72
1
  1
南新町一丁目
  0
TEXT
  8
05 町名
 10
104.466116
 20
67.422580
 11
104.466116
 21
67.422580
 40
2.231262
 41
0.500000
 62
251
 72
1
  1
北新町
  0
TEXT
  8
05 町名
 10
104.291621
 20
72.431263
 11
104.291621
 21
72.431263
 40
2.231262
 41
0.500000
 62
251
 72
1
  1
糸屋町一丁目
  0
TEXT
  8
05 町名
 10
104.763602
 20
78.143268
 11
104.763602
 21
78.143268
 40
2.231262
 41
0.500000
 62
251
 72
1
  1
大手通一丁目
  0
TEXT
  8
05 町名
 10
104.224441
 20
84.130278
 11
104.224441
 21
84.130278
 40
2.231262
 41
0.500000
 62
251
 72
1
  1
内淡路町一丁目
  0
TEXT
  8
05 町名
 10
104.098005
 20
89.519475
 11
104.098005
 21
89.519475
 40
2.231262
 41
0.500000
 62
251
 72
1
  1
内平野町一丁目
  0
TEXT
  8
05 町名
 10
104.181377
 20
94.909792
 11
104.181377
 21
94.909792
 40
2.231262
 41
0.500000
 62
251
 72
1
  1
船越町一丁目
  0
TEXT
  8
05 町名
 10
104.273017
 20
100.709905
 11
104.273017
 21
100.709905
 40
2.231262
 41
0.500000
 62
251
 72
1
  1
釣鐘町一丁目
  0
TEXT
  8
05 町名
 10
103.980871
 20
107.248048
 11
103.980871
 21
107.248048
 40
2.231262
 41
0.500000
 62
251
 72
1
  1
島町一丁目
  0
TEXT
  8
05 町名
 10
105.119138
 20
113.713586
 11
105.119138
 21
113.713586
 40
2.231262
 41
0.500000
 62
251
 72
1
  1
石町一丁目
  0
TEXT
  8
05 町名
 10
103.856503
 20
120.502878
 11
103.856503
 21
120.502878
 40
2.231262
 41
0.500000
 62
251
 72
1
  1
天満橋京町
  0
TEXT
  8
05 町名
 10
121.611086
 20
15.570552
 11
121.611086
 21
15.570552
 40
2.231262
 41
0.500000
 62
251
 72
1
  1
谷町四丁目
  0
TEXT
  8
05 町名
 10
121.379747
 20
48.408031
 11
121.379747
 21
48.408031
 40
2.231262
 41
0.500000
 62
251
 72
1
  1
谷町三丁目
  0
TEXT
  8
05 町名
 10
121.204390
 20
104.924489
 11
121.204390
 21
104.924489
 40
2.231262
 41
0.500000
 62
251
 72
1
  1
谷町一丁目
  0
TEXT
  8
05 町名
 10
121.152025
 20
82.537687
 11
121.152025
 21
82.537687
 40
2.231262
 41
0.500000
 62
251
 72
1
  1
谷町二丁目
  0
TEXT
  8
05 町名
 10
141.410347
 20
118.431071
 11
141.410347
 21
118.431071
 40
2.231262
 41
0.500000
 62
251
 72
1
  1
大手前一丁目
  0
TEXT
  8
05 町名
 10
133.115883
 20
-6.385525
 11
133.115883
 21
-6.385525
 40
2.231262
 41
0.500000
 62
251
 72
1
  1
内久宝寺町二丁目
  0
TEXT
  8
05 町名
 10
139.373249
 20
38.972888
 11
139.373249
 21
38.972888
 40
2.231262
 41
0.500000
 62
251
 72
1
  1
大手前四丁目
  0
TEXT
  8
05 町名
 10
139.014957
 20
63.331245
 11
139.014957
 21
63.331245
 40
2.231262
 41
0.500000
 62
251
 72
1
  1
大手前三丁目
  0
TEXT
  8
05 町名
 10
136.133978
 20
-18.580206
 11
136.133978
 21
-18.580206
 40
2.231262
 41
0.500000
 62
251
 72
1
  1
龍造寺町
  0
TEXT
  8
05 町名
 10
136.810082
 20
-13.262668
 11
136.810082
 21
-13.262668
 40
2.231262
 41
0.500000
 62
251
 72
1
  1
内久宝寺町一丁目
  0
TEXT
  8
05 町名
 10
137.406949
 20
89.321467
 11
137.406949
 21
89.321467
 40
2.231262
 41
0.500000
 62
251
 72
1
  1
大手前二丁目
  0
TEXT
  8
05 町名
 10
141.945029
 20
7.997495
 11
141.945029
 21
7.997495
 40
2.231262
 41
0.500000
 62
251
 72
1
  1
法円坂二丁目
  0
TEXT
  8
05 町名
 10
152.795770
 20
-14.515657
 11
152.795770
 21
-14.515657
 40
2.231262
 41
0.500000
 62
251
 72
1
  1
上町
  0
TEXT
  8
05 町名
 10
117.925672
 20
-17.279330
 11
117.925672
 21
-17.279330
 40
2.231262
 41
0.500000
 62
251
 72
1
  1
谷町五丁目
  0
TEXT
  8
06 駅名・鉄道名
 10
76.029947
 20
129.096551
 11
76.029947
 21
129.096551
 40
1.402505
 41
0.500000
 50
0.464086
 72
1
  1
京阪本線
  0
TEXT
  8
06 駅名・鉄道名
 10
111.953217
 20
125.836695
 11
111.953217
 21
125.836695
 40
1.402515
 41
0.500000
 72
1
  1
天満橋駅
  0
TEXT
  8
07 街区符号
 10
26.442825
 20
128.867881
 11
26.442825
 21
128.867881
 40
0.989548
 41
0.500000
 62
44
 72
1
  1
8
  0
TEXT
  8
07 街区符号
 10
35.378942
 20
130.948043
 11
35.378942
 21
130.948043
 40
0.989548
 41
0.500000
 62
44
 72
1
  1
5
  0
TEXT
  8
07 街区符号
 10
41.223239
 20
130.066696
 11
41.223239
 21
130.066696
 40
0.989548
 41
0.500000
 62
44
 72
1
  1
4
  0
TEXT
  8
07 街区符号
 10
45.728246
 20
129.397051
 11
45.728246
 21
129.397051
 40
0.989548
 41
0.500000
 62
44
 72
1
  1
3
  0
TEXT
  8
07 街区符号
 10
82.339334
 20
129.370179
 11
82.339334
 21
129.370179
 40
0.989548
 41
0.500000
 62
44
 72
1
  1
1
  0
TEXT
  8
07 街区符号
 10
23.865705
 20
-12.882327
 11
23.865705
 21
-12.882327
 40
0.989548
 41
0.500000
 62
44
 72
1
  1
15
  0
TEXT
  8
07 街区符号
 10
23.926339
 20
-8.942146
 11
23.926339
 21
-8.942146
 40
0.989548
 41
0.500000
 62
44
 72
1
  1
8
  0
TEXT
  8
07 街区符号
 10
24.110997
 20
-3.761723
 11
24.110997
 21
-3.761723
 40
0.989548
 41
0.500000
 62
44
 72
1
  1
9
  0
TEXT
  8
07 街区符号
 10
24.232093
 20
-0.001034
 11
24.232093
 21
-0.001034
 40
0.989548
 41
0.500000
 62
44
 72
1
  1
10
  0
TEXT
  8
07 街区符号
 10
24.297378
 20
5.129090
 11
24.297378
 21
5.129090
 40
0.989548
 41
0.500000
 62
44
 72
1
  1
9
  0
TEXT
  8
07 街区符号
 10
24.389018
 20
8.819155
 11
24.389018
 21
8.819155
 40
0.989548
 41
0.500000
 62
44
 72
1
  1
8
  0
TEXT
  8
07 街区符号
 10
24.505119
 20
13.729826
 11
24.505119
 21
13.729826
 40
0.989548
 41
0.500000
 62
44
 72
1
  1
9
  0
TEXT
  8
07 街区符号
 10
24.575743
 20
17.629698
 11
24.575743
 21
17.629698
 40
0.989548
 41
0.500000
 62
44
 72
1
  1
8
  0
TEXT
  8
07 街区符号
 10
24.632588
 20
24.390052
 11
24.632588
 21
24.390052
 40
0.989548
 41
0.500000
 62
44
 72
1
  1
9
  0
TEXT
  8
07 街区符号
 10
24.910953
 20
39.010440
 11
24.910953
 21
39.010440
 40
0.989548
 41
0.500000
 62
44
 72
1
  1
7
  0
TEXT
  8
07 街区符号
 10
24.944026
 20
44.510225
 11
24.944026
 21
44.510225
 40
0.989548
 41
0.500000
 62
44
 72
1
  1
8
  0
TEXT
  8
07 街区符号
 10
25.425654
 20
48.193055
 11
25.425654
 21
48.193055
 40
0.989548
 41
0.500000
 62
44
 72
1
  1
7
  0
TEXT
  8
07 街区符号
 10
25.078386
 20
57.870389
 11
25.078386
 21
57.870389
 40
0.989548
 41
0.500000
 62
44
 72
1
  1
7
  0
TEXT
  8
07 街区符号
 10
25.053581
 20
62.889925
 11
25.053581
 21
62.889925
 40
0.989548
 41
0.500000
 62
44
 72
1
  1
8
  0
TEXT
  8
07 街区符号
 10
25.144188
 20
66.850518
 11
25.144188
 21
66.850518
 40
0.989548
 41
0.500000
 62
44
 72
1
  1
7
  0
TEXT
  8
07 街区符号
 10
25.457004
 20
54.072492
 11
25.457004
 21
54.072492
 40
0.989548
 41
0.500000
 62
44
 72
1
  1
8
  0
TEXT
  8
07 街区符号
 10
25.188285
 20
72.100532
 11
25.188285
 21
72.100532
 40
0.989548
 41
0.500000
 62
44
 72
1
  1
6
  0
TEXT
  8
07 街区符号
 10
25.288538
 20
76.140707
 11
25.288538
 21
76.140707
 40
0.989548
 41
0.500000
 62
44
 72
1
  1
7
  0
TEXT
  8
07 街区符号
 10
25.363642
 20
81.210972
 11
25.363642
 21
81.210972
 40
0.989548
 41
0.500000
 62
44
 72
1
  1
6
  0
TEXT
  8
07 街区符号
 10
25.453559
 20
99.570605
 11
25.453559
 21
99.570605
 40
0.989548
 41
0.500000
 62
44
 72
1
  1
8
  0
TEXT
  8
07 街区符号
 10
25.403777
 20
85.260880
 11
25.403777
 21
85.260880
 40
0.989548
 41
0.500000
 62
44
 72
1
  1
7
  0
TEXT
  8
07 街区符号
 10
25.419108
 20
90.280846
 11
25.419108
 21
90.280846
 40
0.989548
 41
0.500000
 62
44
 72
1
  1
6
  0
TEXT
  8
07 街区符号
 10
25.454248
 20
103.490459
 11
25.454248
 21
103.490459
 40
0.989548
 41
0.500000
 62
44
 72
1
  1
7
  0
TEXT
  8
07 街区符号
 10
25.499207
 20
94.320849
 11
25.499207
 21
94.320849
 40
0.989548
 41
0.500000
 62
44
 72
1
  1
7
  0
TEXT
  8
07 街区符号
 10
25.519878
 20
108.420422
 11
25.519878
 21
108.420422
 40
0.989548
 41
0.500000
 62
44
 72
1
  1
6
  0
TEXT
  8
07 街区符号
 10
25.399299
 20
112.649648
 11
25.399299
 21
112.649648
 40
0.989548
 41
0.500000
 62
44
 72
1
  1
2
  0
TEXT
  8
07 街区符号
 10
25.634428
 20
115.710634
 11
25.634428
 21
115.710634
 40
0.989548
 41
0.500000
 62
44
 72
1
  1
7
  0
TEXT
  8
07 街区符号
 10
25.870935
 20
120.441728
 11
25.870935
 21
120.441728
 40
0.989548
 41
0.500000
 62
44
 72
1
  1
8
  0
TEXT
  8
07 街区符号
 10
25.830455
 20
124.631421
 11
25.830455
 21
124.631421
 40
0.989548
 41
0.500000
 62
44
 72
1
  1
7
  0
TEXT
  8
07 街区符号
 10
32.435089
 20
-12.850287
 11
32.435089
 21
-12.850287
 40
0.989548
 41
0.500000
 62
44
 72
1
  1
14
  0
TEXT
  8
07 街区符号
 10
32.495896
 20
-8.980042
 11
32.495896
 21
-8.980042
 40
0.989548
 41
0.500000
 62
44
 72
1
  1
7
  0
TEXT
  8
07 街区符号
 10
32.681243
 20
-3.929501
 11
32.681243
 21
-3.929501
 40
0.989548
 41
0.500000
 62
44
 72
1
  1
6
  0
TEXT
  8
07 街区符号
 10
32.842647
 20
-0.128847
 11
32.842647
 21
-0.128847
 40
0.989548
 41
0.500000
 62
44
 72
1
  1
7
  0
TEXT
  8
07 街区符号
 10
32.897769
 20
4.951322
 11
32.897769
 21
4.951322
 40
0.989548
 41
0.500000
 62
44
 72
1
  1
8
  0
TEXT
  8
07 街区符号
 10
33.149262
 20
8.702711
 11
33.149262
 21
8.702711
 40
0.989548
 41
0.500000
 62
44
 72
1
  1
7
  0
TEXT
  8
07 街区符号
 10
33.255372
 20
13.562393
 11
33.255372
 21
13.562393
 40
0.989548
 41
0.500000
 62
44
 72
1
  1
6
  0
TEXT
  8
07 街区符号
 10
33.232462
 20
24.292210
 11
33.232462
 21
24.292210
 40
0.989548
 41
0.500000
 62
44
 72
1
  1
6
  0
TEXT
  8
07 街区符号
 10
33.307048
 20
17.332729
 11
33.307048
 21
17.332729
 40
0.989548
 41
0.500000
 62
44
 72
1
  1
7
  0
TEXT
  8
07 街区符号
 10
33.441236
 20
38.852309
 11
33.441236
 21
38.852309
 40
0.989548
 41
0.500000
 62
44
 72
1
  1
6
  0
TEXT
  8
07 街区符号
 10
33.494807
 20
44.222213
 11
33.494807
 21
44.222213
 40
0.989548
 41
0.500000
 62
44
 72
1
  1
5
  0
TEXT
  8
07 街区符号
 10
33.704615
 20
48.333272
 11
33.704615
 21
48.333272
 40
0.989548
 41
0.500000
 62
44
 72
1
  1
6
  0
TEXT
  8
07 街区符号
 10
33.657761
 20
53.842703
 11
33.657761
 21
53.842703
 40
0.989548
 41
0.500000
 62
44
 72
1
  1
5
  0
TEXT
  8
07 街区符号
 10
33.728386
 20
57.753256
 11
33.728386
 21
57.753256
 40
0.989548
 41
0.500000
 62
44
 72
1
  1
6
  0
TEXT
  8
07 街区符号
 10
33.693591
 20
62.842383
 11
33.693591
 21
62.842383
 40
0.989548
 41
0.500000
 62
44
 72
1
  1
5
  0
TEXT
  8
07 街区符号
 10
33.774551
 20
66.732695
 11
33.774551
 21
66.732695
 40
0.989548
 41
0.500000
 62
44
 72
1
  1
4
  0
TEXT
  8
07 街区符号
 10
33.818821
 20
71.942746
 11
33.818821
 21
71.942746
 40
0.989548
 41
0.500000
 62
44
 72
1
  1
5
  0
TEXT
  8
07 街区符号
 10
33.879627
 20
75.863031
 11
33.879627
 21
75.863031
 40
0.989548
 41
0.500000
 62
44
 72
1
  1
4
  0
TEXT
  8
07 街区符号
 10
33.884450
 20
80.972915
 11
33.884450
 21
80.972915
 40
0.989548
 41
0.500000
 62
44
 72
1
  1
5
  0
TEXT
  8
07 街区符号
 10
33.954214
 20
85.062872
 11
33.954214
 21
85.062872
 40
0.989548
 41
0.500000
 62
44
 72
1
  1
4
  0
TEXT
  8
07 街区符号
 10
33.959554
 20
90.122715
 11
33.959554
 21
90.122715
 40
0.989548
 41
0.500000
 62
44
 72
1
  1
5
  0
TEXT
  8
07 街区符号
 10
33.984014
 20
99.372510
 11
33.984014
 21
99.372510
 40
0.989548
 41
0.500000
 62
44
 72
1
  1
5
  0
TEXT
  8
07 街区符号
 10
34.020188
 20
94.082791
 11
34.020188
 21
94.082791
 40
0.989548
 41
0.500000
 62
44
 72
1
  1
6
  0
TEXT
  8
07 街区符号
 10
33.931304
 20
108.101748
 11
33.931304
 21
108.101748
 40
0.989548
 41
0.500000
 62
44
 72
1
  1
5
  0
TEXT
  8
07 街区符号
 10
33.984875
 20
103.292365
 11
33.984875
 21
103.292365
 40
0.989548
 41
0.500000
 62
44
 72
1
  1
4
  0
TEXT
  8
07 街区符号
 10
33.782130
 20
111.991027
 11
33.782130
 21
111.991027
 40
0.989548
 41
0.500000
 62
44
 72
1
  1
1
  0
TEXT
  8
07 街区符号
 10
34.428434
 20
114.793889
 11
34.428434
 21
114.793889
 40
0.989548
 41
0.500000
 62
44
 72
1
  1
6
  0
TEXT
  8
07 街区符号
 10
34.605169
 20
119.554696
 11
34.605169
 21
119.554696
 40
0.989548
 41
0.500000
 62
44
 72
1
  1
5
  0
TEXT
  8
07 街区符号
 10
35.025128
 20
127.716265
 11
35.025128
 21
127.716265
 40
0.989548
 41
0.500000
 62
44
 72
1
  1
5
  0
TEXT
  8
07 街区符号
 10
34.994811
 20
123.706407
 11
34.994811
 21
123.706407
 40
0.989548
 41
0.500000
 62
44
 72
1
  1
6
  0
TEXT
  8
07 街区符号
 10
41.364833
 20
-12.896107
 11
41.364833
 21
-12.896107
 40
0.989548
 41
0.500000
 62
44
 72
1
  1
7
  0
TEXT
  8
07 街区符号
 10
41.435975
 20
-9.046189
 11
41.435975
 21
-9.046189
 40
0.989548
 41
0.500000
 62
44
 72
1
  1
4
  0
TEXT
  8
07 街区符号
 10
41.721230
 20
-4.014940
 11
41.721230
 21
-4.014940
 40
0.989548
 41
0.500000
 62
44
 72
1
  1
5
  0
TEXT
  8
07 街区符号
 10
41.892625
 20
-0.224277
 11
41.892625
 21
-0.224277
 40
0.989548
 41
0.500000
 62
44
 72
1
  1
6
  0
TEXT
  8
07 街区符号
 10
42.128271
 20
4.756329
 11
42.128271
 21
4.756329
 40
0.989548
 41
0.500000
 62
44
 72
1
  1
5
  0
TEXT
  8
07 街区符号
 10
42.310173
 20
8.447083
 11
42.310173
 21
8.447083
 40
0.989548
 41
0.500000
 62
44
 72
1
  1
4
  0
TEXT
  8
07 街区符号
 10
42.425929
 20
13.387725
 11
42.425929
 21
13.387725
 40
0.989548
 41
0.500000
 62
44
 72
1
  1
5
  0
TEXT
  8
07 街区符号
 10
42.326365
 20
17.356845
 11
42.326365
 21
17.356845
 40
0.989548
 41
0.500000
 62
44
 72
1
  1
4
  0
TEXT
  8
07 街区符号
 10
42.282612
 20
24.236744
 11
42.282612
 21
24.236744
 40
0.989548
 41
0.500000
 62
44
 72
1
  1
5
  0
TEXT
  8
07 街区符号
 10
42.371496
 20
38.756190
 11
42.371496
 21
38.756190
 40
0.989548
 41
0.500000
 62
44
 72
1
  1
3
  0
TEXT
  8
07 街区符号
 10
42.605075
 20
44.137119
 11
42.605075
 21
44.137119
 40
0.989548
 41
0.500000
 62
44
 72
1
  1
4
  0
TEXT
  8
07 街区符号
 10
42.468993
 20
71.795295
 11
42.468993
 21
71.795295
 40
0.989548
 41
0.500000
 62
44
 72
1
  1
2
  0
TEXT
  8
07 街区符号
 10
42.877239
 20
53.817898
 11
42.877239
 21
53.817898
 40
0.989548
 41
0.500000
 62
44
 72
1
  1
4
  0
TEXT
  8
07 街区符号
 10
42.439710
 20
75.755199
 11
42.439710
 21
75.755199
 40
0.989548
 41
0.500000
 62
44
 72
1
  1
3
  0
TEXT
  8
07 街区符号
 10
42.885163
 20
48.148269
 11
42.885163
 21
48.148269
 40
0.989548
 41
0.500000
 62
44
 72
1
  1
3
  0
TEXT
  8
07 街区符号
 10
42.879479
 20
57.448018
 11
42.879479
 21
57.448018
 40
0.989548
 41
0.500000
 62
44
 72
1
  1
3
  0
TEXT
  8
07 街区符号
 10
42.733578
 20
62.736962
 11
42.733578
 21
62.736962
 40
0.989548
 41
0.500000
 62
44
 72
1
  1
4
  0
TEXT
  8
07 街区符号
 10
42.704984
 20
66.566554
 11
42.704984
 21
66.566554
 40
0.989548
 41
0.500000
 62
44
 72
1
  1
3
  0
TEXT
  8
07 街区符号
 10
42.334634
 20
80.844326
 11
42.334634
 21
80.844326
 40
0.989548
 41
0.500000
 62
44
 72
1
  1
2
  0
TEXT
  8
07 街区符号
 10
42.244544
 20
84.913612
 11
42.244544
 21
84.913612
 40
0.989548
 41
0.500000
 62
44
 72
1
  1
3
  0
TEXT
  8
07 街区符号
 10
41.944991
 20
99.101638
 11
41.944991
 21
99.101638
 40
0.989548
 41
0.500000
 62
44
 72
1
  1
4
  0
TEXT
  8
07 街区符号
 10
41.875572
 20
103.020890
 11
41.875572
 21
103.020890
 40
0.989548
 41
0.500000
 62
44
 72
1
  1
3
  0
TEXT
  8
07 街区符号
 10
41.712101
 20
107.879797
 11
41.712101
 21
107.879797
 40
0.989548
 41
0.500000
 62
44
 72
1
  1
2
  0
TEXT
  8
07 街区符号
 10
42.189939
 20
89.973283
 11
42.189939
 21
89.973283
 40
0.989548
 41
0.500000
 62
44
 72
1
  1
2
  0
TEXT
  8
07 街区符号
 10
42.081073
 20
93.782463
 11
42.081073
 21
93.782463
 40
0.989548
 41
0.500000
 62
44
 72
1
  1
3
  0
TEXT
  8
07 街区符号
 10
41.705900
 20
113.239796
 11
41.705900
 21
113.239796
 40
0.989548
 41
0.500000
 62
44
 72
1
  1
3
  0
TEXT
  8
07 街区符号
 10
41.628385
 20
118.839145
 11
41.628385
 21
118.839145
 40
0.989548
 41
0.500000
 62
44
 72
1
  1
4
  0
TEXT
  8
07 街区符号
 10
41.407553
 20
127.107771
 11
41.407553
 21
127.107771
 40
0.989548
 41
0.500000
 62
44
 72
1
  1
4
  0
TEXT
  8
07 街区符号
 10
41.878156
 20
122.930222
 11
41.878156
 21
122.930222
 40
0.989548
 41
0.500000
 62
44
 72
1
  1
3
  0
TEXT
  8
07 街区符号
 10
44.416518
 20
127.302420
 11
44.416518
 21
127.302420
 40
0.989548
 41
0.500000
 62
44
 72
1
  1
1
  0
TEXT
  8
07 街区符号
 10
46.110310
 20
122.401052
 11
46.110310
 21
122.401052
 40
0.989548
 41
0.500000
 62
44
 72
1
  1
2
  0
TEXT
  8
07 街区符号
 10
46.269646
 20
118.531841
 11
46.269646
 21
118.531841
 40
0.989548
 41
0.500000
 62
44
 72
1
  1
1
  0
TEXT
  8
07 街区符号
 10
46.478420
 20
112.653093
 11
46.478420
 21
112.653093
 40
0.989548
 41
0.500000
 62
44
 72
1
  1
2
  0
TEXT
  8
07 街区符号
 10
46.900103
 20
126.544494
 11
46.900103
 21
126.544494
 40
0.989548
 41
0.500000
 62
44
 72
1
  1
2
  0
TEXT
  8
07 街区符号
 10
46.733015
 20
105.614718
 11
46.733015
 21
105.614718
 40
0.989548
 41
0.500000
 62
44
 72
1
  1
1
  0
TEXT
  8
07 街区符号
 10
51.424575
 20
-12.907132
 11
51.424575
 21
-12.907132
 40
0.989548
 41
0.500000
 62
44
 72
1
  1
6
  0
TEXT
  8
07 街区符号
 10
51.375482
 20
-9.077195
 11
51.375482
 21
-9.077195
 40
0.989548
 41
0.500000
 62
44
 72
1
  1
3
  0
TEXT
  8
07 街区符号
 10
46.966594
 20
98.766170
 11
46.966594
 21
98.766170
 40
0.989548
 41
0.500000
 62
44
 72
1
  1
1
  0
TEXT
  8
07 街区符号
 10
51.441456
 20
-4.117260
 11
51.441456
 21
-4.117260
 40
0.989548
 41
0.500000
 62
44
 72
1
  1
2
  0
TEXT
  8
07 街区符号
 10
47.282855
 20
93.408065
 11
47.282855
 21
93.408065
 40
0.989548
 41
0.500000
 62
44
 72
1
  1
2
  0
TEXT
  8
07 街区符号
 10
51.572371
 20
-0.276643
 11
51.572371
 21
-0.276643
 40
0.989548
 41
0.500000
 62
44
 72
1
  1
3
  0
TEXT
  8
07 街区符号
 10
47.531248
 20
87.649466
 11
47.531248
 21
87.649466
 40
0.989548
 41
0.500000
 62
44
 72
1
  1
1
  0
TEXT
  8
07 街区符号
 10
51.607511
 20
4.793192
 11
51.607511
 21
4.793192
 40
0.989548
 41
0.500000
 62
44
 72
1
  1
4
  0
TEXT
  8
07 街区符号
 10
47.736922
 20
78.310700
 11
47.736922
 21
78.310700
 40
0.989548
 41
0.500000
 62
44
 72
1
  1
1
  0
TEXT
  8
07 街区符号
 10
50.982911
 20
24.108930
 11
50.982911
 21
24.108930
 40
0.989548
 41
0.500000
 62
44
 72
1
  1
2
  0
TEXT
  8
07 街区符号
 10
51.185829
 20
17.390263
 11
51.185829
 21
17.390263
 40
0.989548
 41
0.500000
 62
44
 72
1
  1
3
  0
TEXT
  8
07 街区符号
 10
51.440078
 20
8.371979
 11
51.440078
 21
8.371979
 40
0.989548
 41
0.500000
 62
44
 72
1
  1
3
  0
TEXT
  8
07 街区符号
 10
51.385301
 20
13.411497
 11
51.385301
 21
13.411497
 40
0.989548
 41
0.500000
 62
44
 72
1
  1
2
  0
TEXT
  8
07 街区符号
 10
47.740367
 20
69.471391
 11
47.740367
 21
69.471391
 40
0.989548
 41
0.500000
 62
44
 72
1
  1
1
  0
TEXT
  8
07 街区符号
 10
47.981525
 20
63.132461
 11
47.981525
 21
63.132461
 40
0.989548
 41
0.500000
 62
44
 72
1
  1
1
  0
TEXT
  8
07 街区符号
 10
48.447477
 20
57.805621
 11
48.447477
 21
57.805621
 40
0.989548
 41
0.500000
 62
44
 72
1
  1
2
  0
TEXT
  8
07 街区符号
 10
48.556343
 20
47.836141
 11
48.556343
 21
47.836141
 40
0.989548
 41
0.500000
 62
44
 72
1
  1
2
  0
TEXT
  8
07 街区符号
 10
48.526543
 20
53.925730
 11
48.526543
 21
53.925730
 40
0.989548
 41
0.500000
 62
44
 72
1
  1
1
  0
TEXT
  8
07 街区符号
 10
49.820356
 20
40.882517
 11
49.820356
 21
40.882517
 40
0.989548
 41
0.500000
 62
44
 72
1
  1
1
  0
TEXT
  8
07 街区符号
 10
51.491066
 20
36.681196
 11
51.491066
 21
36.681196
 40
0.989548
 41
0.500000
 62
44
 72
1
  1
2
  0
TEXT
  8
07 街区符号
 10
52.495662
 20
105.003210
 11
52.495662
 21
105.003210
 40
0.989548
 41
0.500000
 62
44
 72
1
  1
5
  0
TEXT
  8
07 街区符号
 10
52.095684
 20
84.661946
 11
52.095684
 21
84.661946
 40
0.989548
 41
0.500000
 62
44
 72
1
  1
4
  0
TEXT
  8
07 街区符号
 10
52.385763
 20
121.301715
 11
52.385763
 21
121.301715
 40
0.989548
 41
0.500000
 62
44
 72
1
  1
5
  0
TEXT
  8
07 街区符号
 10
52.365437
 20
117.281952
 11
52.365437
 21
117.281952
 40
0.989548
 41
0.500000
 62
44
 72
1
  1
6
  0
TEXT
  8
07 街区符号
 10
52.663267
 20
93.214363
 11
52.663267
 21
93.214363
 40
0.989548
 41
0.500000
 62
44
 72
1
  1
3
  0
TEXT
  8
07 街区符号
 10
52.742505
 20
89.304845
 11
52.742505
 21
89.304845
 40
0.989548
 41
0.500000
 62
44
 72
1
  1
3
  0
TEXT
  8
07 街区符号
 10
53.082021
 20
69.087433
 11
53.082021
 21
69.087433
 40
0.989548
 41
0.500000
 62
44
 72
1
  1
3
  0
TEXT
  8
07 街区符号
 10
53.334548
 20
56.319053
 11
53.334548
 21
56.319053
 40
0.989548
 41
0.500000
 62
44
 72
1
  1
4
  0
TEXT
  8
07 街区符号
 10
53.001233
 20
79.356724
 11
53.001233
 21
79.356724
 40
0.989548
 41
0.500000
 62
44
 72
1
  1
3
  0
TEXT
  8
07 街区符号
 10
57.948594
 20
41.242531
 11
57.948594
 21
41.242531
 40
0.989548
 41
0.500000
 62
44
 72
1
  1
5
  0
TEXT
  8
07 街区符号
 10
60.064240
 20
103.170322
 11
60.064240
 21
103.170322
 40
0.989548
 41
0.500000
 62
44
 72
1
  1
3
  0
TEXT
  8
07 街区符号
 10
60.041502
 20
109.879773
 11
60.041502
 21
109.879773
 40
0.989548
 41
0.500000
 62
44
 72
1
  1
2
  0
TEXT
  8
07 街区符号
 10
60.050115
 20
89.740910
 11
60.050115
 21
89.740910
 40
0.989548
 41
0.500000
 62
44
 72
1
  1
1
  0
TEXT
  8
07 街区符号
 10
60.027377
 20
92.350673
 11
60.027377
 21
92.350673
 40
0.989548
 41
0.500000
 62
44
 72
1
  1
2
  0
TEXT
  8
07 街区符号
 10
59.309070
 20
98.156729
 11
59.309070
 21
98.156729
 40
0.989548
 41
0.500000
 62
44
 72
1
  1
4
  0
TEXT
  8
07 街区符号
 10
60.381535
 20
115.971516
 11
60.381535
 21
115.971516
 40
0.989548
 41
0.500000
 62
44
 72
1
  1
1
  0
TEXT
  8
07 街区符号
 10
60.457328
 20
86.293209
 11
60.457328
 21
86.293209
 40
0.989548
 41
0.500000
 62
44
 72
1
  1
2
  0
TEXT
  8
07 街区符号
 10
59.818603
 20
83.969994
 11
59.818603
 21
83.969994
 40
0.989548
 41
0.500000
 62
44
 72
1
  1
1
  0
TEXT
  8
07 街区符号
 10
60.181719
 20
79.261983
 11
60.181719
 21
79.261983
 40
0.989548
 41
0.500000
 62
44
 72
1
  1
2
  0
TEXT
  8
07 街区符号
 10
60.350529
 20
73.423285
 11
60.350529
 21
73.423285
 40
0.989548
 41
0.500000
 62
44
 72
1
  1
1
  0
TEXT
  8
07 街区符号
 10
60.691251
 20
61.045409
 11
60.691251
 21
61.045409
 40
0.989548
 41
0.500000
 62
44
 72
1
  1
2
  0
TEXT
  8
07 街区符号
 10
58.270368
 20
46.963837
 11
58.270368
 21
46.963837
 40
0.989548
 41
0.500000
 62
44
 72
1
  1
6
  0
TEXT
  8
07 街区符号
 10
56.531617
 20
20.216637
 11
56.531617
 21
20.216637
 40
0.989548
 41
0.500000
 62
44
 72
1
  1
1
  0
TEXT
  8
07 街区符号
 10
61.814876
 20
128.535083
 11
61.814876
 21
128.535083
 40
0.989548
 41
0.500000
 62
44
 72
1
  1
6
  0
TEXT
  8
07 街区符号
 10
57.075256
 20
11.329612
 11
57.075256
 21
11.329612
 40
0.989548
 41
0.500000
 62
44
 72
1
  1
1
  0
TEXT
  8
07 街区符号
 10
57.486087
 20
4.992319
 11
57.486087
 21
4.992319
 40
0.989548
 41
0.500000
 62
44
 72
1
  1
1
  0
TEXT
  8
07 街区符号
 10
57.772720
 20
-0.386542
 11
57.772720
 21
-0.386542
 40
0.989548
 41
0.500000
 62
44
 72
1
  1
2
  0
TEXT
  8
07 街区符号
 10
57.982873
 20
-6.585342
 11
57.982873
 21
-6.585342
 40
0.989548
 41
0.500000
 62
44
 72
1
  1
1
  0
TEXT
  8
07 街区符号
 10
58.315499
 20
-16.844556
 11
58.315499
 21
-16.844556
 40
0.989548
 41
0.500000
 62
44
 72
1
  1
1
  0
TEXT
  8
07 街区符号
 10
61.389921
 20
95.926963
 11
61.389921
 21
95.926963
 40
0.989548
 41
0.500000
 62
44
 72
1
  1
1
  0
TEXT
  8
07 街区符号
 10
61.250566
 20
121.224372
 11
61.250566
 21
121.224372
 40
0.989548
 41
0.500000
 62
44
 72
1
  1
4
  0
TEXT
  8
07 街区符号
 10
61.544435
 20
23.691037
 11
61.544435
 21
23.691037
 40
0.989548
 41
0.500000
 62
44
 72
1
  1
2
  0
TEXT
  8
07 街区符号
 10
62.634642
 20
11.437100
 11
62.634642
 21
11.437100
 40
0.989548
 41
0.500000
 62
44
 72
1
  1
3
  0
TEXT
  8
07 街区符号
 10
63.097321
 20
-9.519892
 11
63.097321
 21
-9.519892
 40
0.989548
 41
0.500000
 62
44
 72
1
  1
6
  0
TEXT
  8
07 街区符号
 10
64.321716
 20
46.653432
 11
64.321716
 21
46.653432
 40
0.989548
 41
0.500000
 62
44
 72
1
  1
7
  0
TEXT
  8
07 街区符号
 10
64.958029
 20
39.257110
 11
64.958029
 21
39.257110
 40
0.989548
 41
0.500000
 62
44
 72
1
  1
8
  0
TEXT
  8
07 街区符号
 10
66.146767
 20
23.143608
 11
66.146767
 21
23.143608
 40
0.989548
 41
0.500000
 62
44
 72
1
  1
1
  0
TEXT
  8
07 街区符号
 10
66.617887
 20
14.826751
 11
66.617887
 21
14.826751
 40
0.989548
 41
0.500000
 62
44
 72
1
  1
1
  0
TEXT
  8
07 街区符号
 10
67.109160
 20
6.408952
 11
67.109160
 21
6.408952
 40
0.989548
 41
0.500000
 62
44
 72
1
  1
2
  0
TEXT
  8
07 街区符号
 10
67.292440
 20
-2.429497
 11
67.292440
 21
-2.429497
 40
0.989548
 41
0.500000
 62
44
 72
1
  1
5
  0
TEXT
  8
07 街区符号
 10
67.183919
 20
-10.889671
 11
67.183919
 21
-10.889671
 40
0.989548
 41
0.500000
 62
44
 72
1
  1
4
  0
TEXT
  8
07 街区符号
 10
66.718484
 20
-19.286800
 11
66.718484
 21
-19.286800
 40
0.989548
 41
0.500000
 62
44
 72
1
  1
3
  0
TEXT
  8
07 街区符号
 10
74.445193
 20
90.631473
 11
74.445193
 21
90.631473
 40
0.989548
 41
0.500000
 62
44
 72
1
  1
3
  0
TEXT
  8
07 街区符号
 10
74.327714
 20
88.081139
 11
74.327714
 21
88.081139
 40
0.989548
 41
0.500000
 62
44
 72
1
  1
4
  0
TEXT
  8
07 街区符号
 10
74.656206
 20
94.119137
 11
74.656206
 21
94.119137
 40
0.989548
 41
0.500000
 62
44
 72
1
  1
4
  0
TEXT
  8
07 街区符号
 10
74.494802
 20
84.581847
 11
74.494802
 21
84.581847
 40
0.989548
 41
0.500000
 62
44
 72
1
  1
3
  0
TEXT
  8
07 街区符号
 10
74.405918
 20
96.580932
 11
74.405918
 21
96.580932
 40
0.989548
 41
0.500000
 62
44
 72
1
  1
3
  0
TEXT
  8
07 街区符号
 10
74.585409
 20
82.482393
 11
74.585409
 21
82.482393
 40
0.989548
 41
0.500000
 62
44
 72
1
  1
4
  0
TEXT
  8
07 街区符号
 10
76.111424
 20
75.642113
 11
76.111424
 21
75.642113
 40
0.989548
 41
0.500000
 62
44
 72
1
  1
4
  0
TEXT
  8
07 街区符号
 10
73.685544
 20
78.388388
 11
73.685544
 21
78.388388
 40
0.989548
 41
0.500000
 62
44
 72
1
  1
3
  0
TEXT
  8
07 街区符号
 10
74.389382
 20
99.950946
 11
74.389382
 21
99.950946
 40
0.989548
 41
0.500000
 62
44
 72
1
  1
4
  0
TEXT
  8
07 街区符号
 10
74.479816
 20
66.073214
 11
74.479816
 21
66.073214
 40
0.989548
 41
0.500000
 62
44
 72
1
  1
4
  0
TEXT
  8
07 街区符号
 10
74.409708
 20
106.000571
 11
74.409708
 21
106.000571
 40
0.989548
 41
0.500000
 62
44
 72
1
  1
4
  0
TEXT
  8
07 街区符号
 10
74.406607
 20
102.570613
 11
74.406607
 21
102.570613
 40
0.989548
 41
0.500000
 62
44
 72
1
  1
3
  0
TEXT
  8
07 街区符号
 10
74.432446
 20
70.822049
 11
74.432446
 21
70.822049
 40
0.989548
 41
0.500000
 62
44
 72
1
  1
3
  0
TEXT
  8
07 街区符号
 10
73.686578
 20
59.788975
 11
73.686578
 21
59.788975
 40
0.989548
 41
0.500000
 62
44
 72
1
  1
4
  0
TEXT
  8
07 街区符号
 10
74.584720
 20
109.051223
 11
74.584720
 21
109.051223
 40
0.989548
 41
0.500000
 62
44
 72
1
  1
3
  0
TEXT
  8
07 街区符号
 10
74.803140
 20
62.104439
 11
74.803140
 21
62.104439
 40
0.989548
 41
0.500000
 62
44
 72
1
  1
3
  0
TEXT
  8
07 街区符号
 10
74.428312
 20
53.362798
 11
74.428312
 21
53.362798
 40
0.989548
 41
0.500000
 62
44
 72
1
  1
4
  0
TEXT
  8
07 街区符号
 10
74.282756
 20
56.462026
 11
74.282756
 21
56.462026
 40
0.989548
 41
0.500000
 62
44
 72
1
  1
3
  0
TEXT
  8
07 街区符号
 10
74.613487
 20
113.351418
 11
74.613487
 21
113.351418
 40
0.989548
 41
0.500000
 62
44
 72
1
  1
4
  0
TEXT
  8
07 街区符号
 10
74.815026
 20
115.082245
 11
74.815026
 21
115.082245
 40
0.989548
 41
0.500000
 62
44
 72
1
  1
4
  0
TEXT
  8
07 街区符号
 10
74.456217
 20
47.653205
 11
74.456217
 21
47.653205
 40
0.989548
 41
0.500000
 62
44
 72
1
  1
3
  0
TEXT
  8
07 街区符号
 10
75.399490
 20
118.254853
 11
75.399490
 21
118.254853
 40
0.989548
 41
0.500000
 62
44
 72
1
  1
5
  0
TEXT
  8
07 街区符号
 10
74.398856
 20
45.053176
 11
74.398856
 21
45.053176
 40
0.989548
 41
0.500000
 62
44
 72
1
  1
4
  0
TEXT
  8
07 街区符号
 10
74.373879
 20
42.023195
 11
74.373879
 21
42.023195
 40
0.989548
 41
0.500000
 62
44
 72
1
  1
3
  0
TEXT
  8
07 街区符号
 10
74.483089
 20
40.133893
 11
74.483089
 21
40.133893
 40
0.989548
 41
0.500000
 62
44
 72
1
  1
4
  0
TEXT
  8
07 街区符号
 10
74.562671
 20
36.184410
 11
74.562671
 21
36.184410
 40
0.989548
 41
0.500000
 62
44
 72
1
  1
3
  0
TEXT
  8
07 街区符号
 10
74.717702
 20
22.895904
 11
74.717702
 21
22.895904
 40
0.989548
 41
0.500000
 62
44
 72
1
  1
4
  0
TEXT
  8
07 街区符号
 10
74.690485
 20
16.226157
 11
74.690485
 21
16.226157
 40
0.989548
 41
0.500000
 62
44
 72
1
  1
3
  0
TEXT
  8
07 街区符号
 10
72.412229
 20
-16.703651
 11
72.412229
 21
-16.703651
 40
0.989548
 41
0.500000
 62
44
 72
1
  1
2
  0
TEXT
  8
07 街区符号
 10
74.749397
 20
12.366248
 11
74.749397
 21
12.366248
 40
0.989548
 41
0.500000
 62
44
 72
1
  1
4
  0
TEXT
  8
07 街区符号
 10
72.922968
 20
-6.681460
 11
72.922968
 21
-6.681460
 40
0.989548
 41
0.500000
 62
44
 72
1
  1
1
  0
TEXT
  8
07 街区符号
 10
74.852750
 20
7.607163
 11
74.852750
 21
7.607163
 40
0.989548
 41
0.500000
 62
44
 72
1
  1
3
  0
TEXT
  8
07 街区符号
 10
74.899948
 20
4.137241
 11
74.899948
 21
4.137241
 40
0.989548
 41
0.500000
 62
44
 72
1
  1
4
  0
TEXT
  8
07 街区符号
 10
74.754564
 20
-0.902965
 11
74.754564
 21
-0.902965
 40
0.989548
 41
0.500000
 62
44
 72
1
  1
3
  0
TEXT
  8
07 街区符号
 10
74.772134
 20
-16.702273
 11
74.772134
 21
-16.702273
 40
0.989548
 41
0.500000
 62
44
 72
1
  1
4
  0
TEXT
  8
07 街区符号
 10
75.185376
 20
-10.215461
 11
75.185376
 21
-10.215461
 40
0.989548
 41
0.500000
 62
44
 72
1
  1
5
  0
TEXT
  8
07 街区符号
 10
75.428774
 20
-5.809501
 11
75.428774
 21
-5.809501
 40
0.989548
 41
0.500000
 62
44
 72
1
  1
7
  0
TEXT
  8
07 街区符号
 10
83.147214
 20
-15.781393
 11
83.147214
 21
-15.781393
 40
0.989548
 41
0.500000
 62
44
 72
1
  1
2
  0
TEXT
  8
07 街区符号
 10
83.549604
 20
-10.159306
 11
83.549604
 21
-10.159306
 40
0.989548
 41
0.500000
 62
44
 72
1
  1
1
  0
TEXT
  8
07 街区符号
 10
83.916509
 20
-7.527926
 11
83.916509
 21
-7.527926
 40
0.989548
 41
0.500000
 62
44
 72
1
  1
6
  0
TEXT
  8
07 街区符号
 10
84.177993
 20
-3.756556
 11
84.177993
 21
-3.756556
 40
0.989548
 41
0.500000
 62
44
 72
1
  1
5
  0
TEXT
  8
07 街区符号
 10
84.544382
 20
-0.974968
 11
84.544382
 21
-0.974968
 40
0.989548
 41
0.500000
 62
44
 72
1
  1
2
  0
TEXT
  8
07 街区符号
 10
84.921105
 20
3.756556
 11
84.921105
 21
3.756556
 40
0.989548
 41
0.500000
 62
44
 72
1
  1
1
  0
TEXT
  8
07 街区符号
 10
84.674090
 20
7.255072
 11
84.674090
 21
7.255072
 40
0.989548
 41
0.500000
 62
44
 72
1
  1
2
  0
TEXT
  8
07 街区符号
 10
85.112654
 20
11.617280
 11
85.112654
 21
11.617280
 40
0.989548
 41
0.500000
 62
44
 72
1
  1
1
  0
TEXT
  8
07 街区符号
 10
85.413757
 20
15.448594
 11
85.413757
 21
15.448594
 40
0.989548
 41
0.500000
 62
44
 72
1
  1
2
  0
TEXT
  8
07 街区符号
 10
85.711071
 20
22.149692
 11
85.711071
 21
22.149692
 40
0.989548
 41
0.500000
 62
44
 72
1
  1
1
  0
TEXT
  8
07 街区符号
 10
86.265045
 20
35.581859
 11
86.265045
 21
35.581859
 40
0.989548
 41
0.500000
 62
44
 72
1
  1
2
  0
TEXT
  8
07 街区符号
 10
86.334637
 20
39.691884
 11
86.334637
 21
39.691884
 40
0.989548
 41
0.500000
 62
44
 72
1
  1
1
  0
TEXT
  8
07 街区符号
 10
86.524807
 20
41.693153
 11
86.524807
 21
41.693153
 40
0.989548
 41
0.500000
 62
44
 72
1
  1
2
  0
TEXT
  8
07 街区符号
 10
86.619720
 20
44.753450
 11
86.619720
 21
44.753450
 40
0.989548
 41
0.500000
 62
44
 72
1
  1
1
  0
TEXT
  8
07 街区符号
 10
86.737026
 20
47.413425
 11
86.737026
 21
47.413425
 40
0.989548
 41
0.500000
 62
44
 72
1
  1
2
  0
TEXT
  8
07 街区符号
 10
86.858984
 20
53.083744
 11
86.858984
 21
53.083744
 40
0.989548
 41
0.500000
 62
44
 72
1
  1
1
  0
TEXT
  8
07 街区符号
 10
86.904115
 20
56.124060
 11
86.904115
 21
56.124060
 40
0.989548
 41
0.500000
 62
44
 72
1
  1
2
  0
TEXT
  8
07 街区符号
 10
87.077404
 20
59.515088
 11
87.077404
 21
59.515088
 40
0.989548
 41
0.500000
 62
44
 72
1
  1
1
  0
TEXT
  8
07 街区符号
 10
86.856227
 20
61.793344
 11
86.856227
 21
61.793344
 40
0.989548
 41
0.500000
 62
44
 72
1
  1
2
  0
TEXT
  8
07 街区符号
 10
87.015220
 20
65.725257
 11
87.015220
 21
65.725257
 40
0.989548
 41
0.500000
 62
44
 72
1
  1
1
  0
TEXT
  8
07 街区符号
 10
87.134593
 20
70.294774
 11
87.134593
 21
70.294774
 40
0.989548
 41
0.500000
 62
44
 72
1
  1
2
  0
TEXT
  8
07 街区符号
 10
87.288590
 20
75.555037
 11
87.288590
 21
75.555037
 40
0.989548
 41
0.500000
 62
44
 72
1
  1
1
  0
TEXT
  8
07 街区符号
 10
87.148373
 20
77.644587
 11
87.148373
 21
77.644587
 40
0.989548
 41
0.500000
 62
44
 72
1
  1
2
  0
TEXT
  8
07 街区符号
 10
87.022454
 20
86.983438
 11
87.022454
 21
86.983438
 40
0.989548
 41
0.500000
 62
44
 72
1
  1
1
  0
TEXT
  8
07 街区符号
 10
87.391254
 20
89.295284
 11
87.391254
 21
89.295284
 40
0.989548
 41
0.500000
 62
44
 72
1
  1
2
  0
TEXT
  8
07 街区符号
 10
87.143033
 20
92.953568
 11
87.143033
 21
92.953568
 40
0.989548
 41
0.500000
 62
44
 72
1
  1
1
  0
TEXT
  8
07 街区符号
 10
87.282388
 20
95.184281
 11
87.282388
 21
95.184281
 40
0.989548
 41
0.500000
 62
44
 72
1
  1
2
  0
TEXT
  8
07 街区符号
 10
87.155953
 20
98.513643
 11
87.155953
 21
98.513643
 40
0.989548
 41
0.500000
 62
44
 72
1
  1
1
  0
TEXT
  8
07 街区符号
 10
87.163704
 20
100.953475
 11
87.163704
 21
100.953475
 40
0.989548
 41
0.500000
 62
44
 72
1
  1
2
  0
TEXT
  8
07 街区符号
 10
87.327175
 20
104.374132
 11
87.327175
 21
104.374132
 40
0.989548
 41
0.500000
 62
44
 72
1
  1
1
  0
TEXT
  8
07 街区符号
 10
87.550763
 20
81.236294
 11
87.550763
 21
81.236294
 40
0.989548
 41
0.500000
 62
44
 72
1
  1
1
  0
TEXT
  8
07 街区符号
 10
87.509766
 20
83.516014
 11
87.509766
 21
83.516014
 40
0.989548
 41
0.500000
 62
44
 72
1
  1
2
  0
TEXT
  8
07 街区符号
 10
87.541289
 20
107.604962
 11
87.541289
 21
107.604962
 40
0.989548
 41
0.500000
 62
44
 72
1
  1
2
  0
TEXT
  8
07 街区符号
 10
87.679955
 20
111.945466
 11
87.679955
 21
111.945466
 40
0.989548
 41
0.500000
 62
44
 72
1
  1
1
  0
TEXT
  8
07 街区符号
 10
88.141945
 20
113.607735
 11
88.141945
 21
113.607735
 40
0.989548
 41
0.500000
 62
44
 72
1
  1
3
  0
TEXT
  8
07 街区符号
 10
85.781695
 20
117.706046
 11
85.781695
 21
117.706046
 40
0.989548
 41
0.500000
 62
44
 72
1
  1
2
  0
TEXT
  8
07 街区符号
 10
89.004086
 20
121.291724
 11
89.004086
 21
121.291724
 40
0.989548
 41
0.500000
 62
44
 72
1
  1
2
  0
TEXT
  8
07 街区符号
 10
96.027129
 20
-15.857874
 11
96.027129
 21
-15.857874
 40
0.989548
 41
0.500000
 62
44
 72
1
  1
6
  0
TEXT
  8
07 街区符号
 10
92.043713
 20
117.256803
 11
92.043713
 21
117.256803
 40
0.989548
 41
0.500000
 62
44
 72
1
  1
1
  0
TEXT
  8
07 街区符号
 10
96.173891
 20
-11.117393
 11
96.173891
 21
-11.117393
 40
0.989548
 41
0.500000
 62
44
 72
1
  1
7
  0
TEXT
  8
07 街区符号
 10
96.640705
 20
-8.474988
 11
96.640705
 21
-8.474988
 40
0.989548
 41
0.500000
 62
44
 72
1
  1
3
  0
TEXT
  8
07 街区符号
 10
96.741991
 20
-4.635061
 11
96.741991
 21
-4.635061
 40
0.989548
 41
0.500000
 62
44
 72
1
  1
4
  0
TEXT
  8
07 街区符号
 10
96.948009
 20
-1.764245
 11
96.948009
 21
-1.764245
 40
0.989548
 41
0.500000
 62
44
 72
1
  1
3
  0
TEXT
  8
07 街区符号
 10
97.155405
 20
2.796746
 11
97.155405
 21
2.796746
 40
0.989548
 41
0.500000
 62
44
 72
1
  1
4
  0
TEXT
  8
07 街区符号
 10
97.318359
 20
6.297330
 11
97.318359
 21
6.297330
 40
0.989548
 41
0.500000
 62
44
 72
1
  1
3
  0
TEXT
  8
07 街区符号
 10
97.575710
 20
10.878302
 11
97.575710
 21
10.878302
 40
0.989548
 41
0.500000
 62
44
 72
1
  1
4
  0
TEXT
  8
07 街区符号
 10
97.794819
 20
14.080883
 11
97.794819
 21
14.080883
 40
0.989548
 41
0.500000
 62
44
 72
1
  1
3
  0
TEXT
  8
07 街区符号
 10
98.034599
 20
21.330099
 11
98.034599
 21
21.330099
 40
0.989548
 41
0.500000
 62
44
 72
1
  1
4
  0
TEXT
  8
07 街区符号
 10
98.536897
 20
35.061991
 11
98.536897
 21
35.061991
 40
0.989548
 41
0.500000
 62
44
 72
1
  1
3
  0
TEXT
  8
07 街区符号
 10
98.596153
 20
39.302241
 11
98.596153
 21
39.302241
 40
0.989548
 41
0.500000
 62
44
 72
1
  1
4
  0
TEXT
  8
07 街区符号
 10
98.715871
 20
41.363110
 11
98.715871
 21
41.363110
 40
0.989548
 41
0.500000
 62
44
 72
1
  1
3
  0
TEXT
  8
07 街区符号
 10
98.900874
 20
44.433743
 11
98.900874
 21
44.433743
 40
0.989548
 41
0.500000
 62
44
 72
1
  1
4
  0
TEXT
  8
07 街区符号
 10
98.997854
 20
47.113700
 11
98.997854
 21
47.113700
 40
0.989548
 41
0.500000
 62
44
 72
1
  1
3
  0
TEXT
  8
07 街区符号
 10
99.129802
 20
52.823982
 11
99.129802
 21
52.823982
 40
0.989548
 41
0.500000
 62
44
 72
1
  1
4
  0
TEXT
  8
07 街区符号
 10
99.055215
 20
55.773691
 11
99.055215
 21
55.773691
 40
0.989548
 41
0.500000
 62
44
 72
1
  1
3
  0
TEXT
  8
07 街区符号
 10
99.058833
 20
59.103397
 11
99.058833
 21
59.103397
 40
0.989548
 41
0.500000
 62
44
 72
1
  1
4
  0
TEXT
  8
07 街区符号
 10
99.242802
 20
74.613831
 11
99.242802
 21
74.613831
 40
0.989548
 41
0.500000
 62
44
 72
1
  1
4
  0
TEXT
  8
07 街区符号
 10
99.030238
 20
64.983178
 11
99.030238
 21
64.983178
 40
0.989548
 41
0.500000
 62
44
 72
1
  1
4
  0
TEXT
  8
07 街区符号
 10
99.097935
 20
61.314129
 11
99.097935
 21
61.314129
 40
0.989548
 41
0.500000
 62
44
 72
1
  1
3
  0
TEXT
  8
07 街区符号
 10
99.232811
 20
76.613722
 11
99.232811
 21
76.613722
 40
0.989548
 41
0.500000
 62
44
 72
1
  1
3
  0
TEXT
  8
07 街区符号
 10
99.341849
 20
66.594460
 11
99.341849
 21
66.594460
 40
0.989548
 41
0.500000
 62
44
 72
1
  1
3
  0
TEXT
  8
07 街区符号
 10
99.228332
 20
69.394220
 11
99.228332
 21
69.394220
 40
0.989548
 41
0.500000
 62
44
 72
1
  1
4
  0
TEXT
  8
07 街区符号
 10
99.178378
 20
71.463530
 11
99.178378
 21
71.463530
 40
0.989548
 41
0.500000
 62
44
 72
1
  1
3
  0
TEXT
  8
07 街区符号
 10
99.564231
 20
80.455458
 11
99.564231
 21
80.455458
 40
0.989548
 41
0.500000
 62
44
 72
1
  1
4
  0
TEXT
  8
07 街区符号
 10
99.271052
 20
83.123529
 11
99.271052
 21
83.123529
 40
0.989548
 41
0.500000
 62
44
 72
1
  1
3
  0
TEXT
  8
07 街区符号
 10
96.960412
 20
97.501812
 11
96.960412
 21
97.501812
 40
0.989548
 41
0.500000
 62
44
 72
1
  1
5
  0
TEXT
  8
07 街区符号
 10
97.028625
 20
99.892034
 11
97.028625
 21
99.892034
 40
0.989548
 41
0.500000
 62
44
 72
1
  1
6
  0
TEXT
  8
07 街区符号
 10
99.424704
 20
86.454268
 11
99.424704
 21
86.454268
 40
0.989548
 41
0.500000
 62
44
 72
1
  1
4
  0
TEXT
  8
07 街区符号
 10
99.214896
 20
88.433316
 11
99.214896
 21
88.433316
 40
0.989548
 41
0.500000
 62
44
 72
1
  1
3
  0
TEXT
  8
07 街区符号
 10
96.727005
 20
92.061024
 11
96.727005
 21
92.061024
 40
0.989548
 41
0.500000
 62
44
 72
1
  1
5
  0
TEXT
  8
07 街区符号
 10
96.836732
 20
94.201303
 11
96.836732
 21
94.201303
 40
0.989548
 41
0.500000
 62
44
 72
1
  1
6
  0
TEXT
  8
07 街区符号
 10
97.332140
 20
103.303389
 11
97.332140
 21
103.303389
 40
0.989548
 41
0.500000
 62
44
 72
1
  1
5
  0
TEXT
  8
07 街区符号
 10
97.626008
 20
106.544555
 11
97.626008
 21
106.544555
 40
0.989548
 41
0.500000
 62
44
 72
1
  1
4
  0
TEXT
  8
07 街区符号
 10
100.385547
 20
110.687998
 11
100.385547
 21
110.687998
 40
0.989548
 41
0.500000
 62
44
 72
1
  1
5
  0
TEXT
  8
07 街区符号
 10
99.741310
 20
113.584652
 11
99.741310
 21
113.584652
 40
0.989548
 41
0.500000
 62
44
 72
1
  1
3
  0
TEXT
  8
07 街区符号
 10
98.564286
 20
119.088572
 11
98.564286
 21
119.088572
 40
0.989548
 41
0.500000
 62
44
 72
1
  1
3
  0
TEXT
  8
07 街区符号
 10
76.008415
 20
121.812281
 11
76.008415
 21
121.812281
 40
0.989548
 41
0.500000
 62
44
 72
1
  1
3
  0
TEXT
  8
07 街区符号
 10
105.269001
 20
125.154734
 11
105.269001
 21
125.154734
 40
0.989548
 41
0.500000
 62
44
 72
1
  1
1
  0
TEXT
  8
07 街区符号
 10
101.888996
 20
91.636155
 11
101.888996
 21
91.636155
 40
0.989548
 41
0.500000
 62
44
 72
1
  1
4
  0
TEXT
  8
07 街区符号
 10
102.173046
 20
93.633893
 11
102.173046
 21
93.633893
 40
0.989548
 41
0.500000
 62
44
 72
1
  1
3
  0
TEXT
  8
07 街区符号
 10
102.282429
 20
97.047832
 11
102.282429
 21
97.047832
 40
0.989548
 41
0.500000
 62
44
 72
1
  1
4
  0
TEXT
  8
07 街区符号
 10
102.420922
 20
99.418331
 11
102.420922
 21
99.418331
 40
0.989548
 41
0.500000
 62
44
 72
1
  1
3
  0
TEXT
  8
07 街区符号
 10
102.704111
 20
102.799627
 11
102.704111
 21
102.799627
 40
0.989548
 41
0.500000
 62
44
 72
1
  1
4
  0
TEXT
  8
07 街区符号
 10
102.968179
 20
106.050870
 11
102.968179
 21
106.050870
 40
0.989548
 41
0.500000
 62
44
 72
1
  1
3
  0
TEXT
  8
07 街区符号
 10
108.231113
 20
115.616238
 11
108.231113
 21
115.616238
 40
0.989548
 41
0.500000
 62
44
 72
1
  1
1
  0
TEXT
  8
07 街区符号
 10
108.456079
 20
118.677225
 11
108.456079
 21
118.677225
 40
0.989548
 41
0.500000
 62
44
 72
1
  1
2
  0
TEXT
  8
07 街区符号
 10
107.861624
 20
-12.508531
 11
107.861624
 21
-12.508531
 40
0.989548
 41
0.500000
 62
44
 72
1
  1
1
  0
TEXT
  8
07 街区符号
 10
107.789449
 20
-15.650134
 11
107.789449
 21
-15.650134
 40
0.989548
 41
0.500000
 62
44
 72
1
  1
2
  0
TEXT
  8
07 街区符号
 10
107.685234
 20
-19.402555
 11
107.685234
 21
-19.402555
 40
0.989548
 41
0.500000
 62
44
 72
1
  1
3
  0
TEXT
  8
07 街区符号
 10
107.962910
 20
-9.059625
 11
107.962910
 21
-9.059625
 40
0.989548
 41
0.500000
 62
44
 72
1
  1
2
  0
TEXT
  8
07 街区符号
 10
107.624772
 20
-5.311337
 11
107.624772
 21
-5.311337
 40
0.989548
 41
0.500000
 62
44
 72
1
  1
1
  0
TEXT
  8
07 街区符号
 10
107.790827
 20
-2.470838
 11
107.790827
 21
-2.470838
 40
0.989548
 41
0.500000
 62
44
 72
1
  1
2
  0
TEXT
  8
07 街区符号
 10
108.428518
 20
2.082229
 11
108.428518
 21
2.082229
 40
0.989548
 41
0.500000
 62
44
 72
1
  1
1
  0
TEXT
  8
07 街区符号
 10
108.600946
 20
5.583157
 11
108.600946
 21
5.583157
 40
0.989548
 41
0.500000
 62
44
 72
1
  1
2
  0
TEXT
  8
07 街区符号
 10
108.875866
 20
10.333974
 11
108.875866
 21
10.333974
 40
0.989548
 41
0.500000
 62
44
 72
1
  1
1
  0
TEXT
  8
07 街区符号
 10
108.728760
 20
14.173212
 11
108.728760
 21
14.173212
 40
0.989548
 41
0.500000
 62
44
 72
1
  1
2
  0
TEXT
  8
07 街区符号
 10
109.157160
 20
20.644865
 11
109.157160
 21
20.644865
 40
0.989548
 41
0.500000
 62
44
 72
1
  1
1
  0
TEXT
  8
07 街区符号
 10
109.088947
 20
34.583809
 11
109.088947
 21
34.583809
 40
0.989548
 41
0.500000
 62
44
 72
1
  1
2
  0
TEXT
  8
07 街区符号
 10
109.677717
 20
38.896407
 11
109.677717
 21
38.896407
 40
0.989548
 41
0.500000
 62
44
 72
1
  1
1
  0
TEXT
  8
07 街区符号
 10
109.716992
 20
41.036858
 11
109.716992
 21
41.036858
 40
0.989548
 41
0.500000
 62
44
 72
1
  1
2
  0
TEXT
  8
07 街区符号
 10
109.751443
 20
44.207055
 11
109.751443
 21
44.207055
 40
0.989548
 41
0.500000
 62
44
 72
1
  1
1
  0
TEXT
  8
07 街区符号
 10
110.168302
 20
46.928697
 11
110.168302
 21
46.928697
 40
0.989548
 41
0.500000
 62
44
 72
1
  1
2
  0
TEXT
  8
07 街区符号
 10
110.340558
 20
52.589025
 11
110.340558
 21
52.589025
 40
0.989548
 41
0.500000
 62
44
 72
1
  1
1
  0
TEXT
  8
07 街区符号
 10
109.966074
 20
55.527365
 11
109.966074
 21
55.527365
 40
0.989548
 41
0.500000
 62
44
 72
1
  1
2
  0
TEXT
  8
07 街区符号
 10
110.060125
 20
58.777489
 11
110.060125
 21
58.777489
 40
0.989548
 41
0.500000
 62
44
 72
1
  1
1
  0
TEXT
  8
07 街区符号
 10
110.060125
 20
60.797361
 11
110.060125
 21
60.797361
 40
0.989548
 41
0.500000
 62
44
 72
1
  1
2
  0
TEXT
  8
07 街区符号
 10
109.934206
 20
64.074012
 11
109.934206
 21
64.074012
 40
0.989548
 41
0.500000
 62
44
 72
1
  1
1
  0
TEXT
  8
07 街区符号
 10
109.685813
 20
65.705620
 11
109.685813
 21
65.705620
 40
0.989548
 41
0.500000
 62
44
 72
1
  1
2
  0
TEXT
  8
07 街区符号
 10
110.120932
 20
68.737409
 11
110.120932
 21
68.737409
 40
0.989548
 41
0.500000
 62
44
 72
1
  1
1
  0
TEXT
  8
07 街区符号
 10
110.120759
 20
70.827389
 11
110.120759
 21
70.827389
 40
0.989548
 41
0.500000
 62
44
 72
1
  1
2
  0
TEXT
  8
07 街区符号
 10
110.236171
 20
73.847896
 11
110.236171
 21
73.847896
 40
0.989548
 41
0.500000
 62
44
 72
1
  1
1
  0
TEXT
  8
07 街区符号
 10
110.525905
 20
75.889300
 11
110.525905
 21
75.889300
 40
0.989548
 41
0.500000
 62
44
 72
1
  1
2
  0
TEXT
  8
07 街区符号
 10
110.215500
 20
80.047470
 11
110.215500
 21
80.047470
 40
0.989548
 41
0.500000
 62
44
 72
1
  1
1
  0
TEXT
  8
07 街区符号
 10
110.361573
 20
82.898046
 11
110.361573
 21
82.898046
 40
0.989548
 41
0.500000
 62
44
 72
1
  1
2
  0
TEXT
  8
07 街区符号
 10
110.215845
 20
86.117422
 11
110.215845
 21
86.117422
 40
0.989548
 41
0.500000
 62
44
 72
1
  1
1
  0
TEXT
  8
07 街区符号
 10
110.257530
 20
87.777193
 11
110.257530
 21
87.777193
 40
0.989548
 41
0.500000
 62
44
 72
1
  1
2
  0
TEXT
  8
07 街区符号
 10
110.401709
 20
90.977793
 11
110.401709
 21
90.977793
 40
0.989548
 41
0.500000
 62
44
 72
1
  1
1
  0
TEXT
  8
07 街区符号
 10
110.451663
 20
93.037973
 11
110.451663
 21
93.037973
 40
0.989548
 41
0.500000
 62
44
 72
1
  1
2
  0
TEXT
  8
07 街区符号
 10
110.345725
 20
96.317294
 11
110.345725
 21
96.317294
 40
0.989548
 41
0.500000
 62
44
 72
1
  1
1
  0
TEXT
  8
07 街区符号
 10
110.533829
 20
98.718283
 11
110.533829
 21
98.718283
 40
0.989548
 41
0.500000
 62
44
 72
1
  1
2
  0
TEXT
  8
07 街区符号
 10
110.737435
 20
102.088985
 11
110.737435
 21
102.088985
 40
0.989548
 41
0.500000
 62
44
 72
1
  1
1
  0
TEXT
  8
07 街区符号
 10
110.111458
 20
105.365981
 11
110.111458
 21
105.365981
 40
0.989548
 41
0.500000
 62
44
 72
1
  1
2
  0
TEXT
  8
07 街区符号
 10
110.780155
 20
109.698905
 11
110.780155
 21
109.698905
 40
0.989548
 41
0.500000
 62
44
 72
1
  1
1
  0
TEXT
  8
07 街区符号
 10
110.870417
 20
111.699484
 11
110.870417
 21
111.699484
 40
0.989548
 41
0.500000
 62
44
 72
1
  1
2
  0
TEXT
  8
07 街区符号
 10
113.969989
 20
-4.390457
 11
113.969989
 21
-4.390457
 40
0.989548
 41
0.500000
 62
44
 72
1
  1
7
  0
TEXT
  8
07 街区符号
 10
114.488479
 20
-14.277599
 11
114.488479
 21
-14.277599
 40
0.989548
 41
0.500000
 62
44
 72
1
  1
6
  0
TEXT
  8
07 街区符号
 10
114.762021
 20
3.313514
 11
114.762021
 21
3.313514
 40
0.989548
 41
0.500000
 62
44
 72
1
  1
9
  0
TEXT
  8
07 街区符号
 10
114.809736
 20
34.322324
 11
114.809736
 21
34.322324
 40
0.989548
 41
0.500000
 62
44
 72
1
  1
3
  0
TEXT
  8
07 街区符号
 10
114.981131
 20
64.611450
 11
114.981131
 21
64.611450
 40
0.989548
 41
0.500000
 62
44
 72
1
  1
4
  0
TEXT
  8
07 街区符号
 10
114.785793
 20
104.388946
 11
114.785793
 21
104.388946
 40
0.989548
 41
0.500000
 62
44
 72
1
  1
5
  0
TEXT
  8
07 街区符号
 10
115.564733
 20
12.893696
 11
115.564733
 21
12.893696
 40
0.989548
 41
0.500000
 62
44
 72
1
  1
10
  0
TEXT
  8
07 街区符号
 10
115.119280
 20
20.204234
 11
115.119280
 21
20.204234
 40
0.989548
 41
0.500000
 62
44
 72
1
  1
11
  0
TEXT
  8
07 街区符号
 10
115.403502
 20
39.714622
 11
115.403502
 21
39.714622
 40
0.989548
 41
0.500000
 62
44
 72
1
  1
4
  0
TEXT
  8
07 街区符号
 10
115.499965
 20
44.474740
 11
115.499965
 21
44.474740
 40
0.989548
 41
0.500000
 62
44
 72
1
  1
5
  0
TEXT
  8
07 街区符号
 10
115.165617
 20
110.560529
 11
115.165617
 21
110.560529
 40
0.989548
 41
0.500000
 62
44
 72
1
  1
6
  0
TEXT
  8
07 街区符号
 10
115.772646
 20
96.971608
 11
115.772646
 21
96.971608
 40
0.989548
 41
0.500000
 62
44
 72
1
  1
4
  0
TEXT
  8
07 街区符号
 10
115.578686
 20
115.153559
 11
115.578686
 21
115.153559
 40
0.989548
 41
0.500000
 62
44
 72
1
  1
7
  0
TEXT
  8
07 街区符号
 10
116.166595
 20
91.473287
 11
116.166595
 21
91.473287
 40
0.989548
 41
0.500000
 62
44
 72
1
  1
9
  0
TEXT
  8
07 街区符号
 10
133.678126
 20
130.454616
 11
133.678126
 21
130.454616
 40
0.989548
 41
0.500000
 62
44
 72
1
  1
7
  0
TEXT
  8
07 街区符号
 10
123.360000
 20
-17.432293
 11
123.360000
 21
-17.432293
 40
0.989548
 41
0.500000
 62
44
 72
1
  1
3
  0
TEXT
  8
07 街区符号
 10
121.158398
 20
-4.459360
 11
121.158398
 21
-4.459360
 40
0.989548
 41
0.500000
 62
44
 72
1
  1
1
  0
TEXT
  8
07 街区符号
 10
120.624577
 20
-9.505423
 11
120.624577
 21
-9.505423
 40
0.989548
 41
0.500000
 62
44
 72
1
  1
2
  0
TEXT
  8
07 街区符号
 10
124.920638
 20
10.109696
 11
124.920638
 21
10.109696
 40
0.989548
 41
0.500000
 62
44
 72
1
  1
7
  0
TEXT
  8
07 街区符号
 10
124.036966
 20
5.808812
 11
124.036966
 21
5.808812
 40
0.989548
 41
0.500000
 62
44
 72
1
  1
8
  0
TEXT
  8
07 街区符号
 10
122.803269
 20
13.863841
 11
122.803269
 21
13.863841
 40
0.989548
 41
0.500000
 62
44
 72
1
  1
5
  0
TEXT
  8
07 街区符号
 10
122.334733
 20
19.941716
 11
122.334733
 21
19.941716
 40
0.989548
 41
0.500000
 62
44
 72
1
  1
4
  0
TEXT
  8
07 街区符号
 10
125.380045
 20
-3.200514
 11
125.380045
 21
-3.200514
 40
0.989548
 41
0.500000
 62
44
 72
1
  1
7
  0
TEXT
  8
07 街区符号
 10
124.330490
 20
-7.445243
 11
124.330490
 21
-7.445243
 40
0.989548
 41
0.500000
 62
44
 72
1
  1
8
  0
TEXT
  8
07 街区符号
 10
122.822390
 20
-11.799526
 11
122.822390
 21
-11.799526
 40
0.989548
 41
0.500000
 62
44
 72
1
  1
9
  0
TEXT
  8
07 街区符号
 10
122.690097
 20
-14.445376
 11
122.690097
 21
-14.445376
 40
0.989548
 41
0.500000
 62
44
 72
1
  1
10
  0
TEXT
  8
07 街区符号
 10
121.851383
 20
40.849444
 11
121.851383
 21
40.849444
 40
0.989548
 41
0.500000
 62
44
 72
1
  1
2
  0
TEXT
  8
07 街区符号
 10
124.388712
 20
100.087286
 11
124.388712
 21
100.087286
 40
0.989548
 41
0.500000
 62
44
 72
1
  1
3
  0
TEXT
  8
07 街区符号
 10
124.614023
 20
90.378601
 11
124.614023
 21
90.378601
 40
0.989548
 41
0.500000
 62
44
 72
1
  1
1
  0
TEXT
  8
07 街区符号
 10
133.168938
 20
101.050196
 11
133.168938
 21
101.050196
 40
0.989548
 41
0.500000
 62
44
 72
1
  1
1
  0
TEXT
  8
07 街区符号
 10
147.103748
 20
62.508895
 11
147.103748
 21
62.508895
 40
0.989548
 41
0.500000
 62
44
 72
1
  1
1
  0
TEXT
  8
07 街区符号
 10
124.863794
 20
81.950467
 11
124.863794
 21
81.950467
 40
0.989548
 41
0.500000
 62
44
 72
1
  1
2
  0
TEXT
  8
07 街区符号
 10
125.891645
 20
52.446397
 11
125.891645
 21
52.446397
 40
0.989548
 41
0.500000
 62
44
 72
1
  1
1
  0
TEXT
  8
07 街区符号
 10
122.882507
 20
69.381646
 11
122.882507
 21
69.381646
 40
0.989548
 41
0.500000
 62
44
 72
1
  1
3
  0
TEXT
  8
07 街区符号
 10
122.556254
 20
112.473516
 11
122.556254
 21
112.473516
 40
0.989548
 41
0.500000
 62
44
 72
1
  1
2
  0
TEXT
  8
07 街区符号
 10
125.571249
 20
1.437303
 11
125.571249
 21
1.437303
 40
0.989548
 41
0.500000
 62
44
 72
1
  1
6
  0
TEXT
  8
07 街区符号
 10
138.953117
 20
39.278126
 11
138.953117
 21
39.278126
 40
0.989548
 41
0.500000
 62
44
 72
1
  1
1
  0
TEXT
  8
07 街区符号
 10
123.496082
 20
116.669669
 11
123.496082
 21
116.669669
 40
0.989548
 41
0.500000
 62
44
 72
1
  1
1
  0
TEXT
  8
07 街区符号
 10
127.999367
 20
117.629134
 11
127.999367
 21
117.629134
 40
0.989548
 41
0.500000
 62
44
 72
1
  1
6
  0
TEXT
  8
07 街区符号
 10
137.030225
 20
114.515781
 11
137.030225
 21
114.515781
 40
0.989548
 41
0.500000
 62
44
 72
1
  1
5
  0
TEXT
  8
07 街区符号
 10
127.147907
 20
17.083992
 11
127.147907
 21
17.083992
 40
0.989548
 41
0.500000
 62
44
 72
1
  1
3
  0
TEXT
  8
07 街区符号
 10
127.359781
 20
72.132572
 11
127.359781
 21
72.132572
 40
0.989548
 41
0.500000
 62
44
 72
1
  1
2
  0
TEXT
  8
07 街区符号
 10
127.374595
 20
19.924835
 11
127.374595
 21
19.924835
 40
0.989548
 41
0.500000
 62
44
 72
1
  1
2
  0
TEXT
  8
07 街区符号
 10
127.482772
 20
22.445283
 11
127.482772
 21
22.445283
 40
0.989548
 41
0.500000
 62
44
 72
1
  1
1
  0
TEXT
  8
07 街区符号
 10
127.703604
 20
13.686762
 11
127.703604
 21
13.686762
 40
0.989548
 41
0.500000
 62
44
 72
1
  1
6
  0
TEXT
  8
07 街区符号
 10
133.958214
 20
-16.014972
 11
133.958214
 21
-16.014972
 40
0.989548
 41
0.500000
 62
44
 72
1
  1
8
  0
TEXT
  8
07 街区符号
 10
138.444446
 20
-13.648521
 11
138.444446
 21
-13.648521
 40
0.989548
 41
0.500000
 62
44
 72
1
  1
1
  0
TEXT
  8
07 街区符号
 10
137.405398
 20
89.948651
 11
137.405398
 21
89.948651
 40
0.989548
 41
0.500000
 62
44
 72
1
  1
1
  0
TEXT
  8
07 街区符号
 10
140.249687
 20
-6.519195
 11
140.249687
 21
-6.519195
 40
0.989548
 41
0.500000
 62
44
 72
1
  1
2
  0
TEXT
  8
07 街区符号
 10
135.310767
 20
-3.829248
 11
135.310767
 21
-3.829248
 40
0.989548
 41
0.500000
 62
44
 72
1
  1
3
  0
TEXT
  8
07 街区符号
 10
137.657581
 20
-9.661831
 11
137.657581
 21
-9.661831
 40
0.989548
 41
0.500000
 62
44
 72
1
  1
4
  0
TEXT
  8
07 街区符号
 10
130.557883
 20
-4.414229
 11
130.557883
 21
-4.414229
 40
0.989548
 41
0.500000
 62
44
 72
1
  1
5
  0
TEXT
  8
07 街区符号
 10
141.826862
 20
10.722927
 11
141.826862
 21
10.722927
 40
0.989548
 41
0.500000
 62
44
 72
1
  1
1
  0
TEXT
  8
07 街区符号
 10
144.692166
 20
125.188324
 11
144.692166
 21
125.188324
 40
0.989548
 41
0.500000
 62
44
 72
1
  1
4
  0
TEXT
  8
07 街区符号
 10
146.624704
 20
-16.563090
 11
146.624704
 21
-16.563090
 40
0.989548
 41
0.500000
 62
44
 72
1
  1
2
  0
TEXT
  8
07 街区符号
 10
147.107882
 20
-10.801131
 11
147.107882
 21
-10.801131
 40
0.989548
 41
0.500000
 62
44
 72
1
  1
1
  0
TEXT
  8
07 街区符号
 10
147.482711
 20
-5.449486
 11
147.482711
 21
-5.449486
 40
0.989548
 41
0.500000
 62
44
 72
1
  1
1
  0
TEXT
  8
07 街区符号
 10
156.710457
 20
118.863950
 11
156.710457
 21
118.863950
 40
0.989548
 41
0.500000
 62
44
 72
1
  1
3
  0
TEXT
  8
07 街区符号
 10
151.882470
 20
128.835067
 11
151.882470
 21
128.835067
 40
0.989548
 41
0.500000
 62
44
 72
1
  1
2
  0
TEXT
  8
07 街区符号
 10
155.533261
 20
-12.031727
 11
155.533261
 21
-12.031727
 40
0.989548
 41
0.500000
 62
44
 72
1
  1
1
  0
TEXT
  8
07 街区符号
 10
159.071913
 20
-11.874974
 11
159.071913
 21
-11.874974
 40
0.989548
 41
0.500000
 62
44
 72
1
  1
28
  0
TEXT
  8
07 街区符号
 10
169.644977
 20
-15.968463
 11
169.644977
 21
-15.968463
 40
0.989548
 41
0.500000
 62
44
 72
1
  1
19
  0
TEXT
  8
07 街区符号
 10
166.456866
 20
-6.600156
 11
166.456866
 21
-6.600156
 40
0.989548
 41
0.500000
 62
44
 72
1
  1
18
  0
POLYLINE
  8
08 地下鉄
 40
0.352780
 41
0.352780
 62
190
 66
1
 10
0
 20
0
 30
0
  0
VERTEX
  8
08 地下鉄
 10
119.675792
 20
131.571006
  0
VERTEX
  8
08 地下鉄
 10
119.077030
 20
119.489842
  0
VERTEX
  8
08 地下鉄
 10
118.871185
 20
102.409381
  0
VERTEX
  8
08 地下鉄
 10
119.341615
 20
44.435811
  0
VERTEX
  8
08 地下鉄
 10
118.988835
 20
26.678987
  0
VERTEX
  8
08 地下鉄
 10
117.487626
 20
-18.254987
  0
SEQEND
  0
POLYLINE
  8
08 地下鉄
 40
0.352780
 41
0.352780
 62
3
 66
1
 10
0
 20
0
 30
0
  0
VERTEX
  8
08 地下鉄
 10
169.718014
 20
27.014886
  0
VERTEX
  8
08 地下鉄
 10
160.734354
 20
26.679332
  0
VERTEX
  8
08 地下鉄
 10
149.445394
 20
26.914634
  0
VERTEX
  8
08 地下鉄
 10
133.570294
 20
27.502371
  0
VERTEX
  8
08 地下鉄
 10
120.752735
 20
28.090452
  0
VERTEX
  8
08 地下鉄
 10
74.538555
 20
31.500774
  0
VERTEX
  8
08 地下鉄
 10
49.138395
 20
32.559114
  0
VERTEX
  8
08 地下鉄
 10
31.852175
 20
32.911894
  0
VERTEX
  8
08 地下鉄
 10
19.710032
 20
33.082771
  0
SEQEND
  0
POLYLINE
  8
08 地下鉄
 40
0.352780
 41
0.352780
 62
24
 66
1
 10
0
 20
0
 30
0
  0
VERTEX
  8
08 地下鉄
 10
19.710032
 20
24.329418
  0
VERTEX
  8
08 地下鉄
 10
19.975134
 20
35.498832
  0
VERTEX
  8
08 地下鉄
 10
20.327914
 20
48.434214
  0
VERTEX
  8
08 地下鉄
 10
21.033474
 20
121.341937
  0
VERTEX
  8
08 地下鉄
 10
21.033474
 20
131.571006
  0
SEQEND
  0
POLYLINE
  8
08 地下鉄
 40
0.050000
 41
0.050000
 62
190
 66
1
 10
0
 20
0
 30
0
 70
1
  0
VERTEX
  8
08 地下鉄
 10
118.459838
 20
26.689667
  0
VERTEX
  8
08 地下鉄
 10
119.517833
 20
26.668652
  0
VERTEX
  8
08 地下鉄
 10
119.870613
 20
44.425475
  0
VERTEX
  8
08 地下鉄
 10
118.812618
 20
44.446490
  0
SEQEND
  0
HATCH
  8
08 地下鉄
 62
190
 10
0.0
 20
0.0
 30
0.0
 210
0.0
 220
0.0
 230
1.0
  2
SOLID
 70
     1
 71
     1
 91
     1
 92
     2
 72
     1
 73
     1
 93
     4
 10
118.459838
 20
26.689667
 42
0.000000
 10
119.517833
 20
26.668652
 42
0.000000
 10
119.870613
 20
44.425475
 42
0.000000
 10
118.812618
 20
44.446490
 42
0.000000
 97
     0
 75
     0
 76
     1
 98
     1
 10
0.0
 20
0.0
  0
POLYLINE
  8
08 地下鉄
 40
0.050000
 41
0.050000
 62
190
 66
1
 10
0
 20
0
 30
0
 70
1
  0
VERTEX
  8
08 地下鉄
 10
118.342015
 20
102.415755
  0
VERTEX
  8
08 地下鉄
 10
119.400355
 20
102.403008
  0
VERTEX
  8
08 地下鉄
 10
119.606200
 20
119.483468
  0
VERTEX
  8
08 地下鉄
 10
118.547860
 20
119.496215
  0
SEQEND
  0
HATCH
  8
08 地下鉄
 62
190
 10
0.0
 20
0.0
 30
0.0
 210
0.0
 220
0.0
 230
1.0
  2
SOLID
 70
     1
 71
     1
 91
     1
 92
     2
 72
     1
 73
     1
 93
     4
 10
118.342015
 20
102.415755
 42
0.000000
 10
119.400355
 20
102.403008
 42
0.000000
 10
119.606200
 20
119.483468
 42
0.000000
 10
118.547860
 20
119.496215
 42
0.000000
 97
     0
 75
     0
 76
     1
 98
     1
 10
0.0
 20
0.0
  0
POLYLINE
  8
08 地下鉄
 40
0.050000
 41
0.050000
 62
3
 66
1
 10
0
 20
0
 30
0
 70
1
  0
VERTEX
  8
08 地下鉄
 10
120.728447
 20
27.561971
  0
VERTEX
  8
08 地下鉄
 10
133.546006
 20
26.973890
  0
VERTEX
  8
08 地下鉄
 10
133.594582
 20
28.031196
  0
VERTEX
  8
08 地下鉄
 10
120.777024
 20
28.619277
  0
SEQEND
  0
HATCH
  8
08 地下鉄
 62
3
 10
0.0
 20
0.0
 30
0.0
 210
0.0
 220
0.0
 230
1.0
  2
SOLID
 70
     1
 71
     1
 91
     1
 92
     2
 72
     1
 73
     1
 93
     4
 10
120.728447
 20
27.561971
 42
0.000000
 10
133.546006
 20
26.973890
 42
0.000000
 10
133.594582
 20
28.031196
 42
0.000000
 10
120.777024
 20
28.619277
 42
0.000000
 97
     0
 75
     0
 76
     1
 98
     1
 10
0.0
 20
0.0
  0
POLYLINE
  8
08 地下鉄
 40
0.050000
 41
0.050000
 62
3
 66
1
 10
0
 20
0
 30
0
 70
1
  0
VERTEX
  8
08 地下鉄
 10
31.859582
 20
33.441064
  0
VERTEX
  8
08 地下鉄
 10
19.710032
 20
33.611941
  0
VERTEX
  8
08 地下鉄
 10
19.710032
 20
32.553601
  0
VERTEX
  8
08 地下鉄
 10
31.844768
 20
32.382724
  0
SEQEND
  0
HATCH
  8
08 地下鉄
 62
3
 10
0.0
 20
0.0
 30
0.0
 210
0.0
 220
0.0
 230
1.0
  2
SOLID
 70
     1
 71
     1
 91
     1
 92
     2
 72
     1
 73
     1
 93
     4
 10
31.859582
 20
33.441064
 42
0.000000
 10
19.710032
 20
33.611941
 42
0.000000
 10
19.710032
 20
32.553601
 42
0.000000
 10
31.844768
 20
32.382724
 42
0.000000
 97
     0
 75
     0
 76
     1
 98
     1
 10
0.0
 20
0.0
  0
POLYLINE
  8
08 地下鉄
 40
0.050000
 41
0.050000
 62
24
 66
1
 10
0
 20
0
 30
0
 70
1
  0
VERTEX
  8
08 地下鉄
 10
21.562644
 20
121.341937
  0
VERTEX
  8
08 地下鉄
 10
21.562644
 20
131.571006
  0
VERTEX
  8
08 地下鉄
 10
20.504304
 20
131.571006
  0
VERTEX
  8
08 地下鉄
 10
20.504304
 20
121.341937
  0
SEQEND
  0
HATCH
  8
08 地下鉄
 62
24
 10
0.0
 20
0.0
 30
0.0
 210
0.0
 220
0.0
 230
1.0
  2
SOLID
 70
     1
 71
     1
 91
     1
 92
     2
 72
     1
 73
     1
 93
     4
 10
21.562644
 20
121.341937
 42
0.000000
 10
21.562644
 20
131.571006
 42
0.000000
 10
20.504304
 20
131.571006
 42
0.000000
 10
20.504304
 20
121.341937
 42
0.000000
 97
     0
 75
     0
 76
     1
 98
     1
 10
0.0
 20
0.0
  0
POLYLINE
  8
08 地下鉄
 40
0.050000
 41
0.050000
 62
24
 66
1
 10
0
 20
0
 30
0
 70
1
  0
VERTEX
  8
08 地下鉄
 10
20.856912
 20
48.419744
  0
VERTEX
  8
08 地下鉄
 10
19.798916
 20
48.448683
  0
VERTEX
  8
08 地下鉄
 10
19.710032
 20
45.189602
  0
VERTEX
  8
08 地下鉄
 10
19.710032
 20
35.506067
  0
VERTEX
  8
08 地下鉄
 10
20.504132
 20
35.484363
  0
SEQEND
  0
HATCH
  8
08 地下鉄
 62
24
 10
0.0
 20
0.0
 30
0.0
 210
0.0
 220
0.0
 230
1.0
  2
SOLID
 70
     1
 71
     1
 91
     1
 92
     2
 72
     1
 73
     1
 93
     5
 10
20.856912
 20
48.419744
 42
0.000000
 10
19.798916
 20
48.448683
 42
0.000000
 10
19.710032
 20
45.189602
 42
0.000000
 10
19.710032
 20
35.506067
 42
0.000000
 10
20.504132
 20
35.484363
 42
0.000000
 97
     0
 75
     0
 76
     1
 98
     1
 10
0.0
 20
0.0
  0
TEXT
  8
08 地下鉄
 10
118.584034
 20
109.077750
 11
118.584034
 21
109.077750
 40
1.402628
 41
0.500000
 72
1
  1
天満橋駅
  0
TEXT
  8
08 地下鉄
 10
127.508266
 20
27.355953
 11
127.508266
 21
27.355953
 40
1.402628
 41
0.500000
 72
1
  1
谷町四丁目駅
  0
TEXT
  8
08 地下鉄
 10
119.159024
 20
35.117458
 11
119.159024
 21
35.117458
 40
1.402628
 41
0.500000
 72
1
  1
谷町四丁目駅
  0
TEXT
  8
08 地下鉄
 10
24.093944
 20
32.432333
 11
24.093944
 21
32.432333
 40
1.402628
 41
0.500000
 72
1
  1
堺筋本町駅
  0
POLYLINE
  8
09 鉄道地下
  6
AIGENLINE002
 40
0.423336
 41
0.423336
 62
37
 66
1
 10
0
 20
0
 30
0
 70
128
  0
VERTEX
  8
09 鉄道地下
 10
106.709232
 20
126.368966
  0
VERTEX
  8
09 鉄道地下
 10
92.375650
 20
128.446371
  0
VERTEX
  8
09 鉄道地下
 10
56.783283
 20
128.861938
  0
VERTEX
  8
09 鉄道地下
 10
50.551066
 20
130.177543
  0
VERTEX
  8
09 鉄道地下
 10
47.857156
 20
131.571006
  0
SEQEND
  0
POLYLINE
  8
09 鉄道地下
  6
AIGENLINE002
 40
0.423336
 41
0.423336
 62
37
 66
1
 10
0
 20
0
 30
0
 70
128
  0
VERTEX
  8
09 鉄道地下
 10
124.713587
 20
126.853693
  0
VERTEX
  8
09 鉄道地下
 10
121.043503
 20
126.161139
  0
VERTEX
  8
09 鉄道地下
 10
116.473555
 20
126.299719
  0
SEQEND
  0
POLYLINE
  8
13 町界
  6
AIGENLINE003
 40
0.176390
 41
0.176390
 62
30
 66
1
 10
0
 20
0
 30
0
 70
128
  0
VERTEX
  8
13 町界
 10
19.843530
 20
83.772331
  0
VERTEX
  8
13 町界
 10
19.710032
 20
83.775173
  0
SEQEND
  0
POLYLINE
  8
13 町界
  6
AIGENLINE003
 40
0.176390
 41
0.176390
 62
30
 66
1
 10
0
 20
0
 30
0
 70
128
  0
VERTEX
  8
13 町界
 10
19.998561
 20
92.972861
  0
VERTEX
  8
13 町界
 10
19.710032
 20
92.979062
  0
SEQEND
  0
POLYLINE
  8
13 町界
  6
AIGENLINE003
 40
0.176390
 41
0.176390
 62
30
 66
1
 10
0
 20
0
 30
0
 70
128
  0
VERTEX
  8
13 町界
 10
20.054372
 20
101.972540
  0
VERTEX
  8
13 町界
 10
19.710032
 20
101.970818
  0
SEQEND
  0
POLYLINE
  8
13 町界
  6
AIGENLINE003
 40
0.176390
 41
0.176390
 62
30
 66
1
 10
0
 20
0
 30
0
 70
128
  0
VERTEX
  8
13 町界
 10
20.209746
 20
111.102790
  0
VERTEX
  8
13 町界
 10
19.710032
 20
111.111058
  0
SEQEND
  0
POLYLINE
  8
13 町界
  6
AIGENLINE003
 40
0.176390
 41
0.176390
 62
30
 66
1
 10
0
 20
0
 30
0
 70
128
  0
VERTEX
  8
13 町界
 10
20.290362
 20
114.973035
  0
VERTEX
  8
13 町界
 10
19.710032
 20
115.016012
  0
SEQEND
  0
POLYLINE
  8
13 町界
  6
AIGENLINE003
 40
0.176390
 41
0.176390
 62
30
 66
1
 10
0
 20
0
 30
0
 70
128
  0
VERTEX
  8
13 町界
 10
20.389237
 20
123.613389
  0
VERTEX
  8
13 町界
 10
19.710032
 20
123.670405
  0
SEQEND
  0
POLYLINE
  8
13 町界
  6
AIGENLINE003
 40
0.176390
 41
0.176390
 62
30
 66
1
 10
0
 20
0
 30
0
 70
128
  0
VERTEX
  8
13 町界
 10
60.104548
 20
-10.515876
  0
VERTEX
  8
13 町界
 10
19.710032
 20
-10.713970
  0
SEQEND
  0
POLYLINE
  8
13 町界
  6
AIGENLINE003
 40
0.176390
 41
0.176390
 62
30
 66
1
 10
0
 20
0
 30
0
 70
128
  0
VERTEX
  8
13 町界
 10
59.341455
 20
-1.720836
  0
VERTEX
  8
13 町界
 10
19.710032
 20
-1.234385
  0
SEQEND
  0
POLYLINE
  8
13 町界
  6
AIGENLINE003
 40
0.176390
 41
0.176390
 62
30
 66
1
 10
0
 20
0
 30
0
 70
128
  0
VERTEX
  8
13 町界
 10
58.767670
 20
7.175835
  0
VERTEX
  8
13 町界
 10
19.710032
 20
7.472459
  0
SEQEND
  0
POLYLINE
  8
13 町界
  6
AIGENLINE003
 40
0.176390
 41
0.176390
 62
30
 66
1
 10
0
 20
0
 30
0
 70
128
  0
VERTEX
  8
13 町界
 10
58.573538
 20
16.175514
  0
VERTEX
  8
13 町界
 10
19.710032
 20
16.278523
  0
SEQEND
  0
POLYLINE
  8
13 町界
  6
AIGENLINE003
 40
0.176390
 41
0.176390
 62
30
 66
1
 10
0
 20
0
 30
0
 70
128
  0
VERTEX
  8
13 町界
 10
58.309986
 20
29.173597
  0
VERTEX
  8
13 町界
 10
19.710032
 20
29.870200
  0
SEQEND
  0
POLYLINE
  8
13 町界
  6
AIGENLINE003
 40
0.176390
 41
0.176390
 62
30
 66
1
 10
0
 20
0
 30
0
 70
128
  0
VERTEX
  8
13 町界
 10
58.006299
 20
35.030641
  0
VERTEX
  8
13 町界
 10
46.492545
 20
36.086914
  0
VERTEX
  8
13 町界
 10
20.774746
 20
36.688775
  0
VERTEX
  8
13 町界
 10
19.710032
 20
36.683952
  0
SEQEND
  0
POLYLINE
  8
13 町界
  6
AIGENLINE003
 40
0.176390
 41
0.176390
 62
30
 66
1
 10
0
 20
0
 30
0
 70
128
  0
VERTEX
  8
13 町界
 10
50.224641
 20
46.633106
  0
VERTEX
  8
13 町界
 10
19.710032
 20
47.174334
  0
SEQEND
  0
POLYLINE
  8
13 町界
  6
AIGENLINE003
 40
0.176390
 41
0.176390
 62
30
 66
1
 10
0
 20
0
 30
0
 70
128
  0
VERTEX
  8
13 町界
 10
49.479118
 20
55.919420
  0
VERTEX
  8
13 町界
 10
19.710032
 20
56.278745
  0
SEQEND
  0
POLYLINE
  8
13 町界
  6
AIGENLINE003
 40
0.176390
 41
0.176390
 62
30
 66
1
 10
0
 20
0
 30
0
 70
128
  0
VERTEX
  8
13 町界
 10
49.534239
 20
65.018835
  0
VERTEX
  8
13 町界
 10
19.710032
 20
65.468940
  0
SEQEND
  0
POLYLINE
  8
13 町界
  6
AIGENLINE003
 40
0.176390
 41
0.176390
 62
30
 66
1
 10
0
 20
0
 30
0
 70
128
  0
VERTEX
  8
13 町界
 10
19.688156
 20
74.671968
  0
VERTEX
  8
13 町界
 10
19.843530
 20
83.772331
  0
SEQEND
  0
POLYLINE
  8
13 町界
  6
AIGENLINE003
 40
0.176390
 41
0.176390
 62
30
 66
1
 10
0
 20
0
 30
0
 70
128
  0
VERTEX
  8
13 町界
 10
49.589534
 20
74.118682
  0
VERTEX
  8
13 町界
 10
19.688156
 20
74.671968
  0
SEQEND
  0
POLYLINE
  8
13 町界
  6
AIGENLINE003
 40
0.176390
 41
0.176390
 62
30
 66
1
 10
0
 20
0
 30
0
 70
128
  0
VERTEX
  8
13 町界
 10
19.843530
 20
83.772331
  0
VERTEX
  8
13 町界
 10
19.998561
 20
92.972861
  0
SEQEND
  0
POLYLINE
  8
13 町界
  6
AIGENLINE003
 40
0.176390
 41
0.176390
 62
30
 66
1
 10
0
 20
0
 30
0
 70
128
  0
VERTEX
  8
13 町界
 10
49.644483
 20
83.318609
  0
VERTEX
  8
13 町界
 10
19.843530
 20
83.772331
  0
SEQEND
  0
POLYLINE
  8
13 町界
  6
AIGENLINE003
 40
0.176390
 41
0.176390
 62
30
 66
1
 10
0
 20
0
 30
0
 70
128
  0
VERTEX
  8
13 町界
 10
19.998561
 20
92.972861
  0
VERTEX
  8
13 町界
 10
20.054372
 20
101.972540
  0
SEQEND
  0
POLYLINE
  8
13 町界
  6
AIGENLINE003
 40
0.176390
 41
0.176390
 62
30
 66
1
 10
0
 20
0
 30
0
 70
128
  0
VERTEX
  8
13 町界
 10
49.301005
 20
92.216571
  0
VERTEX
  8
13 町界
 10
19.998561
 20
92.972861
  0
SEQEND
  0
POLYLINE
  8
13 町界
  6
AIGENLINE003
 40
0.176390
 41
0.176390
 62
30
 66
1
 10
0
 20
0
 30
0
 70
128
  0
VERTEX
  8
13 町界
 10
20.054372
 20
101.972540
  0
VERTEX
  8
13 町界
 10
20.209746
 20
111.102790
  0
SEQEND
  0
POLYLINE
  8
13 町界
  6
AIGENLINE003
 40
0.176390
 41
0.176390
 62
30
 66
1
 10
0
 20
0
 30
0
 70
128
  0
VERTEX
  8
13 町界
 10
49.056057
 20
101.314868
  0
VERTEX
  8
13 町界
 10
20.054372
 20
101.972540
  0
SEQEND
  0
POLYLINE
  8
13 町界
  6
AIGENLINE003
 40
0.176390
 41
0.176390
 62
30
 66
1
 10
0
 20
0
 30
0
 70
128
  0
VERTEX
  8
13 町界
 10
20.209746
 20
111.102790
  0
VERTEX
  8
13 町界
 10
20.290362
 20
114.973035
  0
SEQEND
  0
POLYLINE
  8
13 町界
  6
AIGENLINE003
 40
0.176390
 41
0.176390
 62
30
 66
1
 10
0
 20
0
 30
0
 70
128
  0
VERTEX
  8
13 町界
 10
38.410645
 20
110.662159
  0
VERTEX
  8
13 町界
 10
20.209746
 20
111.102790
  0
SEQEND
  0
POLYLINE
  8
13 町界
  6
AIGENLINE003
 40
0.176390
 41
0.176390
 62
30
 66
1
 10
0
 20
0
 30
0
 70
128
  0
VERTEX
  8
13 町界
 10
20.290362
 20
114.973035
  0
VERTEX
  8
13 町界
 10
20.389237
 20
123.613389
  0
SEQEND
  0
POLYLINE
  8
13 町界
  6
AIGENLINE003
 40
0.176390
 41
0.176390
 62
30
 66
1
 10
0
 20
0
 30
0
 70
128
  0
VERTEX
  8
13 町界
 10
48.911018
 20
110.513933
  0
VERTEX
  8
13 町界
 10
38.410645
 20
110.662159
  0
SEQEND
  0
POLYLINE
  8
13 町界
  6
AIGENLINE003
 40
0.176390
 41
0.176390
 62
30
 66
1
 10
0
 20
0
 30
0
 70
128
  0
VERTEX
  8
13 町界
 10
38.410645
 20
110.662159
  0
VERTEX
  8
13 町界
 10
38.501941
 20
112.462578
  0
VERTEX
  8
13 町界
 10
35.900360
 20
112.749900
  0
VERTEX
  8
13 町界
 10
35.938601
 20
113.374931
  0
VERTEX
  8
13 町界
 10
20.290362
 20
114.973035
  0
SEQEND
  0
POLYLINE
  8
13 町界
  6
AIGENLINE003
 40
0.176390
 41
0.176390
 62
30
 66
1
 10
0
 20
0
 30
0
 70
128
  0
VERTEX
  8
13 町界
 10
20.496208
 20
131.571006
  0
VERTEX
  8
13 町界
 10
20.389237
 20
123.613389
  0
SEQEND
  0
POLYLINE
  8
13 町界
  6
AIGENLINE003
 40
0.176390
 41
0.176390
 62
30
 66
1
 10
0
 20
0
 30
0
 70
128
  0
VERTEX
  8
13 町界
 10
49.251395
 20
120.614759
  0
VERTEX
  8
13 町界
 10
20.389237
 20
123.613389
  0
SEQEND
  0
POLYLINE
  8
13 町界
  6
AIGENLINE003
 40
0.176390
 41
0.176390
 62
30
 66
1
 10
0
 20
0
 30
0
 70
128
  0
VERTEX
  8
13 町界
 10
49.674972
 20
125.185740
  0
VERTEX
  8
13 町界
 10
44.458032
 20
125.390724
  0
VERTEX
  8
13 町界
 10
45.177027
 20
126.885216
  0
VERTEX
  8
13 町界
 10
44.868345
 20
128.757638
  0
VERTEX
  8
13 町界
 10
25.372771
 20
131.571006
  0
SEQEND
  0
POLYLINE
  8
13 町界
  6
AIGENLINE003
 40
0.176390
 41
0.176390
 62
30
 66
1
 10
0
 20
0
 30
0
 70
128
  0
VERTEX
  8
13 町界
 10
48.911018
 20
110.513933
  0
VERTEX
  8
13 町界
 10
49.167851
 20
119.314571
  0
SEQEND
  0
POLYLINE
  8
13 町界
  6
AIGENLINE003
 40
0.176390
 41
0.176390
 62
30
 66
1
 10
0
 20
0
 30
0
 70
128
  0
VERTEX
  8
13 町界
 10
49.233825
 20
95.806814
  0
VERTEX
  8
13 町界
 10
49.056057
 20
101.314868
  0
SEQEND
  0
POLYLINE
  8
13 町界
  6
AIGENLINE003
 40
0.176390
 41
0.176390
 62
30
 66
1
 10
0
 20
0
 30
0
 70
128
  0
VERTEX
  8
13 町界
 10
49.056057
 20
101.314868
  0
VERTEX
  8
13 町界
 10
48.911018
 20
110.513933
  0
SEQEND
  0
POLYLINE
  8
13 町界
  6
AIGENLINE003
 40
0.176390
 41
0.176390
 62
30
 66
1
 10
0
 20
0
 30
0
 70
128
  0
VERTEX
  8
13 町界
 10
49.479118
 20
55.919420
  0
VERTEX
  8
13 町界
 10
49.534239
 20
65.018835
  0
SEQEND
  0
POLYLINE
  8
13 町界
  6
AIGENLINE003
 40
0.176390
 41
0.176390
 62
30
 66
1
 10
0
 20
0
 30
0
 70
128
  0
VERTEX
  8
13 町界
 10
49.534239
 20
65.018835
  0
VERTEX
  8
13 町界
 10
49.589534
 20
74.118682
  0
SEQEND
  0
POLYLINE
  8
13 町界
  6
AIGENLINE003
 40
0.176390
 41
0.176390
 62
30
 66
1
 10
0
 20
0
 30
0
 70
128
  0
VERTEX
  8
13 町界
 10
49.589534
 20
74.118682
  0
VERTEX
  8
13 町界
 10
49.643966
 20
77.318937
  0
SEQEND
  0
POLYLINE
  8
13 町界
  6
AIGENLINE003
 40
0.176390
 41
0.176390
 62
30
 66
1
 10
0
 20
0
 30
0
 70
128
  0
VERTEX
  8
13 町界
 10
58.006299
 20
35.030641
  0
VERTEX
  8
13 町界
 10
57.775993
 20
36.070377
  0
VERTEX
  8
13 町界
 10
50.224641
 20
46.633106
  0
SEQEND
  0
POLYLINE
  8
13 町界
  6
AIGENLINE003
 40
0.176390
 41
0.176390
 62
30
 66
1
 10
0
 20
0
 30
0
 70
128
  0
VERTEX
  8
13 町界
 10
50.224641
 20
46.633106
  0
VERTEX
  8
13 町界
 10
50.231187
 20
49.332528
  0
VERTEX
  8
13 町界
 10
49.411249
 20
49.329083
  0
VERTEX
  8
13 町界
 10
49.479118
 20
55.919420
  0
SEQEND
  0
POLYLINE
  8
13 町界
  6
AIGENLINE003
 40
0.176390
 41
0.176390
 62
30
 66
1
 10
0
 20
0
 30
0
 70
128
  0
VERTEX
  8
13 町界
 10
49.167851
 20
119.314571
  0
VERTEX
  8
13 町界
 10
49.251395
 20
120.614759
  0
SEQEND
  0
POLYLINE
  8
13 町界
  6
AIGENLINE003
 40
0.176390
 41
0.176390
 62
30
 66
1
 10
0
 20
0
 30
0
 70
128
  0
VERTEX
  8
13 町界
 10
49.251395
 20
120.614759
  0
VERTEX
  8
13 町界
 10
49.347859
 20
123.415294
  0
VERTEX
  8
13 町界
 10
49.674972
 20
125.185740
  0
SEQEND
  0
POLYLINE
  8
13 町界
  6
AIGENLINE003
 40
0.176390
 41
0.176390
 62
30
 66
1
 10
0
 20
0
 30
0
 70
128
  0
VERTEX
  8
13 町界
 10
49.674972
 20
125.185740
  0
VERTEX
  8
13 町界
 10
50.532979
 20
126.421159
  0
VERTEX
  8
13 町界
 10
54.994578
 20
131.571006
  0
SEQEND
  0
POLYLINE
  8
13 町界
  6
AIGENLINE003
 40
0.176390
 41
0.176390
 62
30
 66
1
 10
0
 20
0
 30
0
 70
128
  0
VERTEX
  8
13 町界
 10
66.874892
 20
117.971320
  0
VERTEX
  8
13 町界
 10
53.298030
 20
119.414824
  0
VERTEX
  8
13 町界
 10
49.167851
 20
119.314571
  0
SEQEND
  0
POLYLINE
  8
13 町界
  6
AIGENLINE003
 40
0.176390
 41
0.176390
 62
30
 66
1
 10
0
 20
0
 30
0
 70
128
  0
VERTEX
  8
13 町界
 10
49.301005
 20
92.216571
  0
VERTEX
  8
13 町界
 10
49.307378
 20
92.917050
  0
SEQEND
  0
POLYLINE
  8
13 町界
  6
AIGENLINE003
 40
0.176390
 41
0.176390
 62
30
 66
1
 10
0
 20
0
 30
0
 70
128
  0
VERTEX
  8
13 町界
 10
49.525110
 20
87.217793
  0
VERTEX
  8
13 町界
 10
49.301005
 20
92.216571
  0
SEQEND
  0
POLYLINE
  8
13 町界
  6
AIGENLINE003
 40
0.176390
 41
0.176390
 62
30
 66
1
 10
0
 20
0
 30
0
 70
128
  0
VERTEX
  8
13 町界
 10
49.307378
 20
92.917050
  0
VERTEX
  8
13 町界
 10
49.233825
 20
95.806814
  0
SEQEND
  0
POLYLINE
  8
13 町界
  6
AIGENLINE003
 40
0.176390
 41
0.176390
 62
30
 66
1
 10
0
 20
0
 30
0
 70
128
  0
VERTEX
  8
13 町界
 10
49.233825
 20
95.806814
  0
VERTEX
  8
13 町界
 10
56.887153
 20
94.953717
  0
VERTEX
  8
13 町界
 10
57.071639
 20
98.054409
  0
VERTEX
  8
13 町界
 10
66.847331
 20
96.801075
  0
SEQEND
  0
POLYLINE
  8
13 町界
  6
AIGENLINE003
 40
0.176390
 41
0.176390
 62
30
 66
1
 10
0
 20
0
 30
0
 70
128
  0
VERTEX
  8
13 町界
 10
66.816325
 20
90.901656
  0
VERTEX
  8
13 町界
 10
49.307378
 20
92.917050
  0
SEQEND
  0
POLYLINE
  8
13 町界
  6
AIGENLINE003
 40
0.176390
 41
0.176390
 62
30
 66
1
 10
0
 20
0
 30
0
 70
128
  0
VERTEX
  8
13 町界
 10
49.644483
 20
83.318609
  0
VERTEX
  8
13 町界
 10
49.525110
 20
87.217793
  0
SEQEND
  0
POLYLINE
  8
13 町界
  6
AIGENLINE003
 40
0.176390
 41
0.176390
 62
30
 66
1
 10
0
 20
0
 30
0
 70
128
  0
VERTEX
  8
13 町界
 10
49.525110
 20
87.217793
  0
VERTEX
  8
13 町界
 10
56.547809
 20
86.591815
  0
VERTEX
  8
13 町界
 10
56.631870
 20
85.852837
  0
VERTEX
  8
13 町界
 10
66.847331
 20
84.661946
  0
SEQEND
  0
POLYLINE
  8
13 町界
  6
AIGENLINE003
 40
0.176390
 41
0.176390
 62
30
 66
1
 10
0
 20
0
 30
0
 70
128
  0
VERTEX
  8
13 町界
 10
66.887639
 20
76.492454
  0
VERTEX
  8
13 町界
 10
49.643966
 20
77.318937
  0
SEQEND
  0
POLYLINE
  8
13 町界
  6
AIGENLINE003
 40
0.176390
 41
0.176390
 62
30
 66
1
 10
0
 20
0
 30
0
 70
128
  0
VERTEX
  8
13 町界
 10
49.643966
 20
77.318937
  0
VERTEX
  8
13 町界
 10
49.644483
 20
83.318609
  0
SEQEND
  0
POLYLINE
  8
13 町界
  6
AIGENLINE003
 40
0.176390
 41
0.176390
 62
30
 66
1
 10
0
 20
0
 30
0
 70
128
  0
VERTEX
  8
13 町界
 10
58.006299
 20
35.030641
  0
VERTEX
  8
13 町界
 10
68.084128
 20
34.321291
  0
SEQEND
  0
POLYLINE
  8
13 町界
  6
AIGENLINE003
 40
0.176390
 41
0.176390
 62
30
 66
1
 10
0
 20
0
 30
0
 70
128
  0
VERTEX
  8
13 町界
 10
58.555968
 20
19.774973
  0
VERTEX
  8
13 町界
 10
58.309986
 20
29.173597
  0
SEQEND
  0
POLYLINE
  8
13 町界
  6
AIGENLINE003
 40
0.176390
 41
0.176390
 62
30
 66
1
 10
0
 20
0
 30
0
 70
128
  0
VERTEX
  8
13 町界
 10
58.309986
 20
29.173597
  0
VERTEX
  8
13 町界
 10
58.006299
 20
35.030641
  0
SEQEND
  0
POLYLINE
  8
13 町界
  6
AIGENLINE003
 40
0.176390
 41
0.176390
 62
30
 66
1
 10
0
 20
0
 30
0
 70
128
  0
VERTEX
  8
13 町界
 10
58.573538
 20
16.175514
  0
VERTEX
  8
13 町界
 10
58.555968
 20
19.774973
  0
SEQEND
  0
POLYLINE
  8
13 町界
  6
AIGENLINE003
 40
0.176390
 41
0.176390
 62
30
 66
1
 10
0
 20
0
 30
0
 70
128
  0
VERTEX
  8
13 町界
 10
58.555968
 20
19.774973
  0
VERTEX
  8
13 町界
 10
63.454580
 20
19.728119
  0
VERTEX
  8
13 町界
 10
69.057202
 20
19.246836
  0
SEQEND
  0
POLYLINE
  8
13 町界
  6
AIGENLINE003
 40
0.176390
 41
0.176390
 62
30
 66
1
 10
0
 20
0
 30
0
 70
128
  0
VERTEX
  8
13 町界
 10
59.010207
 20
2.608298
  0
VERTEX
  8
13 町界
 10
58.767670
 20
7.175835
  0
SEQEND
  0
POLYLINE
  8
13 町界
  6
AIGENLINE003
 40
0.176390
 41
0.176390
 62
30
 66
1
 10
0
 20
0
 30
0
 70
128
  0
VERTEX
  8
13 町界
 10
58.767670
 20
7.175835
  0
VERTEX
  8
13 町界
 10
58.573538
 20
16.175514
  0
SEQEND
  0
POLYLINE
  8
13 町界
  6
AIGENLINE003
 40
0.176390
 41
0.176390
 62
30
 66
1
 10
0
 20
0
 30
0
 70
128
  0
VERTEX
  8
13 町界
 10
59.010207
 20
2.608298
  0
VERTEX
  8
13 町界
 10
70.041644
 20
2.232091
  0
SEQEND
  0
POLYLINE
  8
13 町界
  6
AIGENLINE003
 40
0.176390
 41
0.176390
 62
30
 66
1
 10
0
 20
0
 30
0
 70
128
  0
VERTEX
  8
13 町界
 10
60.104548
 20
-10.515876
  0
VERTEX
  8
13 町界
 10
59.341455
 20
-1.720836
  0
SEQEND
  0
POLYLINE
  8
13 町界
  6
AIGENLINE003
 40
0.176390
 41
0.176390
 62
30
 66
1
 10
0
 20
0
 30
0
 70
128
  0
VERTEX
  8
13 町界
 10
59.341455
 20
-1.720836
  0
VERTEX
  8
13 町界
 10
59.010207
 20
2.608298
  0
SEQEND
  0
POLYLINE
  8
13 町界
  6
AIGENLINE003
 40
0.176390
 41
0.176390
 62
30
 66
1
 10
0
 20
0
 30
0
 70
128
  0
VERTEX
  8
13 町界
 10
66.895046
 20
76.993029
  0
VERTEX
  8
13 町界
 10
66.847331
 20
84.661946
  0
SEQEND
  0
POLYLINE
  8
13 町界
  6
AIGENLINE003
 40
0.176390
 41
0.176390
 62
30
 66
1
 10
0
 20
0
 30
0
 70
128
  0
VERTEX
  8
13 町界
 10
66.847331
 20
84.661946
  0
VERTEX
  8
13 町界
 10
66.816325
 20
90.901656
  0
SEQEND
  0
POLYLINE
  8
13 町界
  6
AIGENLINE003
 40
0.176390
 41
0.176390
 62
30
 66
1
 10
0
 20
0
 30
0
 70
128
  0
VERTEX
  8
13 町界
 10
93.407462
 20
82.273360
  0
VERTEX
  8
13 町界
 10
87.446721
 20
82.504269
  0
VERTEX
  8
13 町界
 10
66.847331
 20
84.661946
  0
SEQEND
  0
POLYLINE
  8
13 町界
  6
AIGENLINE003
 40
0.176390
 41
0.176390
 62
30
 66
1
 10
0
 20
0
 30
0
 70
128
  0
VERTEX
  8
13 町界
 10
66.816325
 20
90.901656
  0
VERTEX
  8
13 町界
 10
66.847331
 20
96.801075
  0
SEQEND
  0
POLYLINE
  8
13 町界
  6
AIGENLINE003
 40
0.176390
 41
0.176390
 62
30
 66
1
 10
0
 20
0
 30
0
 70
128
  0
VERTEX
  8
13 町界
 10
93.519429
 20
88.033941
  0
VERTEX
  8
13 町界
 10
66.816325
 20
90.901656
  0
SEQEND
  0
POLYLINE
  8
13 町界
  6
AIGENLINE003
 40
0.176390
 41
0.176390
 62
30
 66
1
 10
0
 20
0
 30
0
 70
128
  0
VERTEX
  8
13 町界
 10
66.887639
 20
76.492454
  0
VERTEX
  8
13 町界
 10
66.895046
 20
76.993029
  0
SEQEND
  0
POLYLINE
  8
13 町界
  6
AIGENLINE003
 40
0.176390
 41
0.176390
 62
30
 66
1
 10
0
 20
0
 30
0
 70
128
  0
VERTEX
  8
13 町界
 10
66.895046
 20
76.993029
  0
VERTEX
  8
13 町界
 10
74.965750
 20
76.713027
  0
VERTEX
  8
13 町界
 10
74.969195
 20
78.043015
  0
VERTEX
  8
13 町界
 10
93.375423
 20
76.633703
  0
SEQEND
  0
POLYLINE
  8
13 町界
  6
AIGENLINE003
 40
0.176390
 41
0.176390
 62
30
 66
1
 10
0
 20
0
 30
0
 70
128
  0
VERTEX
  8
13 町界
 10
66.949996
 20
67.804127
  0
VERTEX
  8
13 町界
 10
66.887639
 20
76.492454
  0
SEQEND
  0
POLYLINE
  8
13 町界
  6
AIGENLINE003
 40
0.176390
 41
0.176390
 62
30
 66
1
 10
0
 20
0
 30
0
 70
128
  0
VERTEX
  8
13 町界
 10
66.847331
 20
96.801075
  0
VERTEX
  8
13 町界
 10
66.828900
 20
102.601274
  0
SEQEND
  0
POLYLINE
  8
13 町界
  6
AIGENLINE003
 40
0.176390
 41
0.176390
 62
30
 66
1
 10
0
 20
0
 30
0
 70
128
  0
VERTEX
  8
13 町界
 10
93.491523
 20
93.733457
  0
VERTEX
  8
13 町界
 10
66.847331
 20
96.801075
  0
SEQEND
  0
POLYLINE
  8
13 町界
  6
AIGENLINE003
 40
0.176390
 41
0.176390
 62
30
 66
1
 10
0
 20
0
 30
0
 70
128
  0
VERTEX
  8
13 町界
 10
66.828900
 20
102.601274
  0
VERTEX
  8
13 町界
 10
66.828383
 20
108.800763
  0
SEQEND
  0
POLYLINE
  8
13 町界
  6
AIGENLINE003
 40
0.176390
 41
0.176390
 62
30
 66
1
 10
0
 20
0
 30
0
 70
128
  0
VERTEX
  8
13 町界
 10
93.463618
 20
99.433145
  0
VERTEX
  8
13 町界
 10
66.828900
 20
102.601274
  0
SEQEND
  0
POLYLINE
  8
13 町界
  6
AIGENLINE003
 40
0.176390
 41
0.176390
 62
30
 66
1
 10
0
 20
0
 30
0
 70
128
  0
VERTEX
  8
13 町界
 10
66.949996
 20
67.804127
  0
VERTEX
  8
13 町界
 10
93.265351
 20
66.509365
  0
SEQEND
  0
POLYLINE
  8
13 町界
  6
AIGENLINE003
 40
0.176390
 41
0.176390
 62
30
 66
1
 10
0
 20
0
 30
0
 70
128
  0
VERTEX
  8
13 町界
 10
67.050249
 20
61.605241
  0
VERTEX
  8
13 町界
 10
66.949996
 20
67.804127
  0
SEQEND
  0
POLYLINE
  8
13 町界
  6
AIGENLINE003
 40
0.176390
 41
0.176390
 62
30
 66
1
 10
0
 20
0
 30
0
 70
128
  0
VERTEX
  8
13 町界
 10
67.080049
 20
55.505489
  0
VERTEX
  8
13 町界
 10
67.050249
 20
61.605241
  0
SEQEND
  0
POLYLINE
  8
13 町界
  6
AIGENLINE003
 40
0.176390
 41
0.176390
 62
30
 66
1
 10
0
 20
0
 30
0
 70
128
  0
VERTEX
  8
13 町界
 10
67.050249
 20
61.605241
  0
VERTEX
  8
13 町界
 10
75.008986
 20
61.487074
  0
VERTEX
  8
13 町界
 10
75.055323
 20
60.544317
  0
VERTEX
  8
13 町界
 10
80.212491
 20
60.458017
  0
VERTEX
  8
13 町界
 10
80.271919
 20
61.169434
  0
VERTEX
  8
13 町界
 10
93.353029
 20
60.834568
  0
SEQEND
  0
POLYLINE
  8
13 町界
  6
AIGENLINE003
 40
0.176390
 41
0.176390
 62
30
 66
1
 10
0
 20
0
 30
0
 70
128
  0
VERTEX
  8
13 町界
 10
66.828383
 20
108.800763
  0
VERTEX
  8
13 町界
 10
66.885228
 20
115.601769
  0
SEQEND
  0
POLYLINE
  8
13 町界
  6
AIGENLINE003
 40
0.176390
 41
0.176390
 62
30
 66
1
 10
0
 20
0
 30
0
 70
128
  0
VERTEX
  8
13 町界
 10
93.634151
 20
105.433505
  0
VERTEX
  8
13 町界
 10
66.828383
 20
108.800763
  0
SEQEND
  0
POLYLINE
  8
13 町界
  6
AIGENLINE003
 40
0.176390
 41
0.176390
 62
30
 66
1
 10
0
 20
0
 30
0
 70
128
  0
VERTEX
  8
13 町界
 10
67.080049
 20
55.505489
  0
VERTEX
  8
13 町界
 10
93.381279
 20
55.034541
  0
SEQEND
  0
POLYLINE
  8
13 町界
  6
AIGENLINE003
 40
0.176390
 41
0.176390
 62
30
 66
1
 10
0
 20
0
 30
0
 70
128
  0
VERTEX
  8
13 町界
 10
67.323447
 20
46.717167
  0
VERTEX
  8
13 町界
 10
67.080049
 20
55.505489
  0
SEQEND
  0
POLYLINE
  8
13 町界
  6
AIGENLINE003
 40
0.176390
 41
0.176390
 62
30
 66
1
 10
0
 20
0
 30
0
 70
128
  0
VERTEX
  8
13 町界
 10
66.885228
 20
115.601769
  0
VERTEX
  8
13 町界
 10
66.874892
 20
117.971320
  0
SEQEND
  0
POLYLINE
  8
13 町界
  6
AIGENLINE003
 40
0.176390
 41
0.176390
 62
30
 66
1
 10
0
 20
0
 30
0
 70
128
  0
VERTEX
  8
13 町界
 10
66.874892
 20
117.971320
  0
VERTEX
  8
13 町界
 10
66.970667
 20
120.602356
  0
VERTEX
  8
13 町界
 10
81.962955
 20
119.975689
  0
VERTEX
  8
13 町界
 10
82.064586
 20
121.047896
  0
VERTEX
  8
13 町界
 10
94.965000
 20
119.377961
  0
SEQEND
  0
POLYLINE
  8
13 町界
  6
AIGENLINE003
 40
0.176390
 41
0.176390
 62
30
 66
1
 10
0
 20
0
 30
0
 70
128
  0
VERTEX
  8
13 町界
 10
94.299748
 20
112.436739
  0
VERTEX
  8
13 町界
 10
66.885228
 20
115.601769
  0
SEQEND
  0
POLYLINE
  8
13 町界
  6
AIGENLINE003
 40
0.176390
 41
0.176390
 62
30
 66
1
 10
0
 20
0
 30
0
 70
128
  0
VERTEX
  8
13 町界
 10
67.323447
 20
46.717167
  0
VERTEX
  8
13 町界
 10
93.174917
 20
46.133220
  0
SEQEND
  0
POLYLINE
  8
13 町界
  6
AIGENLINE003
 40
0.176390
 41
0.176390
 62
30
 66
1
 10
0
 20
0
 30
0
 70
128
  0
VERTEX
  8
13 町界
 10
67.648321
 20
41.798573
  0
VERTEX
  8
13 町界
 10
67.323447
 20
46.717167
  0
SEQEND
  0
POLYLINE
  8
13 町界
  6
AIGENLINE003
 40
0.176390
 41
0.176390
 62
30
 66
1
 10
0
 20
0
 30
0
 70
128
  0
VERTEX
  8
13 町界
 10
67.648321
 20
41.798573
  0
VERTEX
  8
13 町界
 10
92.939960
 20
41.032379
  0
SEQEND
  0
POLYLINE
  8
13 町界
  6
AIGENLINE003
 40
0.176390
 41
0.176390
 62
30
 66
1
 10
0
 20
0
 30
0
 70
128
  0
VERTEX
  8
13 町界
 10
68.084128
 20
34.321291
  0
VERTEX
  8
13 町界
 10
67.648321
 20
41.798573
  0
SEQEND
  0
POLYLINE
  8
13 町界
  6
AIGENLINE003
 40
0.176390
 41
0.176390
 62
30
 66
1
 10
0
 20
0
 30
0
 70
128
  0
VERTEX
  8
13 町界
 10
68.084128
 20
34.321291
  0
VERTEX
  8
13 町界
 10
92.590281
 20
32.841958
  0
SEQEND
  0
POLYLINE
  8
13 町界
  6
AIGENLINE003
 40
0.176390
 41
0.176390
 62
30
 66
1
 10
0
 20
0
 30
0
 70
128
  0
VERTEX
  8
13 町界
 10
69.377425
 20
15.328360
  0
VERTEX
  8
13 町界
 10
69.057202
 20
19.246836
  0
SEQEND
  0
POLYLINE
  8
13 町界
  6
AIGENLINE003
 40
0.176390
 41
0.176390
 62
30
 66
1
 10
0
 20
0
 30
0
 70
128
  0
VERTEX
  8
13 町界
 10
69.057202
 20
19.246836
  0
VERTEX
  8
13 町界
 10
68.084128
 20
34.321291
  0
SEQEND
  0
POLYLINE
  8
13 町界
  6
AIGENLINE003
 40
0.176390
 41
0.176390
 62
30
 66
1
 10
0
 20
0
 30
0
 70
128
  0
VERTEX
  8
13 町界
 10
69.377425
 20
15.328360
  0
VERTEX
  8
13 町界
 10
91.474752
 20
13.636463
  0
SEQEND
  0
POLYLINE
  8
13 町界
  6
AIGENLINE003
 40
0.176390
 41
0.176390
 62
30
 66
1
 10
0
 20
0
 30
0
 70
128
  0
VERTEX
  8
13 町界
 10
69.920204
 20
6.531598
  0
VERTEX
  8
13 町界
 10
69.377425
 20
15.328360
  0
SEQEND
  0
POLYLINE
  8
13 町界
  6
AIGENLINE003
 40
0.176390
 41
0.176390
 62
30
 66
1
 10
0
 20
0
 30
0
 70
128
  0
VERTEX
  8
13 町界
 10
70.041644
 20
2.232091
  0
VERTEX
  8
13 町界
 10
69.920204
 20
6.531598
  0
SEQEND
  0
POLYLINE
  8
13 町界
  6
AIGENLINE003
 40
0.176390
 41
0.176390
 62
30
 66
1
 10
0
 20
0
 30
0
 70
128
  0
VERTEX
  8
13 町界
 10
69.920204
 20
6.531598
  0
VERTEX
  8
13 町界
 10
82.329171
 20
5.703392
  0
VERTEX
  8
13 町界
 10
82.373269
 20
6.629784
  0
VERTEX
  8
13 町界
 10
91.141953
 20
6.035156
  0
SEQEND
  0
POLYLINE
  8
13 町界
  6
AIGENLINE003
 40
0.176390
 41
0.176390
 62
30
 66
1
 10
0
 20
0
 30
0
 70
128
  0
VERTEX
  8
13 町界
 10
74.063474
 20
-2.247939
  0
VERTEX
  8
13 町界
 10
70.061626
 20
-2.047433
  0
VERTEX
  8
13 町界
 10
70.041644
 20
2.232091
  0
SEQEND
  0
POLYLINE
  8
13 町界
  6
AIGENLINE003
 40
0.176390
 41
0.176390
 62
30
 66
1
 10
0
 20
0
 30
0
 70
128
  0
VERTEX
  8
13 町界
 10
73.794066
 20
-8.448461
  0
VERTEX
  8
13 町界
 10
74.063474
 20
-2.247939
  0
SEQEND
  0
POLYLINE
  8
13 町界
  6
AIGENLINE003
 40
0.176390
 41
0.176390
 62
30
 66
1
 10
0
 20
0
 30
0
 70
128
  0
VERTEX
  8
13 町界
 10
74.063474
 20
-2.247939
  0
VERTEX
  8
13 町界
 10
77.563541
 20
-2.330622
  0
VERTEX
  8
13 町界
 10
77.758362
 20
-1.229562
  0
VERTEX
  8
13 町界
 10
90.562485
 20
-2.166979
  0
SEQEND
  0
POLYLINE
  8
13 町界
  6
AIGENLINE003
 40
0.176390
 41
0.176390
 62
30
 66
1
 10
0
 20
0
 30
0
 70
128
  0
VERTEX
  8
13 町界
 10
89.694660
 20
-8.770924
  0
VERTEX
  8
13 町界
 10
77.090182
 20
-7.732566
  0
VERTEX
  8
13 町界
 10
77.044189
 20
-8.623473
  0
VERTEX
  8
13 町界
 10
73.794066
 20
-8.448461
  0
SEQEND
  0
POLYLINE
  8
13 町界
  6
AIGENLINE003
 40
0.176390
 41
0.176390
 62
30
 66
1
 10
0
 20
0
 30
0
 70
128
  0
VERTEX
  8
13 町界
 10
89.694660
 20
-8.770924
  0
VERTEX
  8
13 町界
 10
93.594877
 20
-9.031375
  0
VERTEX
  8
13 町界
 10
93.574034
 20
-9.862681
  0
VERTEX
  8
13 町界
 10
113.081149
 20
-11.053658
  0
SEQEND
  0
POLYLINE
  8
13 町界
  6
AIGENLINE003
 40
0.176390
 41
0.176390
 62
30
 66
1
 10
0
 20
0
 30
0
 70
128
  0
VERTEX
  8
13 町界
 10
90.562485
 20
-2.166979
  0
VERTEX
  8
13 町界
 10
91.124383
 20
5.535614
  0
SEQEND
  0
POLYLINE
  8
13 町界
  6
AIGENLINE003
 40
0.176390
 41
0.176390
 62
30
 66
1
 10
0
 20
0
 30
0
 70
128
  0
VERTEX
  8
13 町界
 10
112.168365
 20
-3.660782
  0
VERTEX
  8
13 町界
 10
90.562485
 20
-2.166979
  0
SEQEND
  0
POLYLINE
  8
13 町界
  6
AIGENLINE003
 40
0.176390
 41
0.176390
 62
30
 66
1
 10
0
 20
0
 30
0
 70
128
  0
VERTEX
  8
13 町界
 10
91.124383
 20
5.535614
  0
VERTEX
  8
13 町界
 10
91.141953
 20
6.035156
  0
SEQEND
  0
POLYLINE
  8
13 町界
  6
AIGENLINE003
 40
0.176390
 41
0.176390
 62
30
 66
1
 10
0
 20
0
 30
0
 70
128
  0
VERTEX
  8
13 町界
 10
91.141953
 20
6.035156
  0
VERTEX
  8
13 町界
 10
91.474752
 20
13.636463
  0
SEQEND
  0
POLYLINE
  8
13 町界
  6
AIGENLINE003
 40
0.176390
 41
0.176390
 62
30
 66
1
 10
0
 20
0
 30
0
 70
128
  0
VERTEX
  8
13 町界
 10
113.430828
 20
4.035266
  0
VERTEX
  8
13 町界
 10
91.124383
 20
5.535614
  0
SEQEND
  0
POLYLINE
  8
13 町界
  6
AIGENLINE003
 40
0.176390
 41
0.176390
 62
30
 66
1
 10
0
 20
0
 30
0
 70
128
  0
VERTEX
  8
13 町界
 10
91.474752
 20
13.636463
  0
VERTEX
  8
13 町界
 10
92.590281
 20
32.841958
  0
SEQEND
  0
POLYLINE
  8
13 町界
  6
AIGENLINE003
 40
0.176390
 41
0.176390
 62
30
 66
1
 10
0
 20
0
 30
0
 70
128
  0
VERTEX
  8
13 町界
 10
114.090223
 20
12.337998
  0
VERTEX
  8
13 町界
 10
91.474752
 20
13.636463
  0
SEQEND
  0
POLYLINE
  8
13 町界
  6
AIGENLINE003
 40
0.176390
 41
0.176390
 62
30
 66
1
 10
0
 20
0
 30
0
 70
128
  0
VERTEX
  8
13 町界
 10
92.590281
 20
32.841958
  0
VERTEX
  8
13 町界
 10
92.939960
 20
41.032379
  0
SEQEND
  0
POLYLINE
  8
13 町界
  6
AIGENLINE003
 40
0.176390
 41
0.176390
 62
30
 66
1
 10
0
 20
0
 30
0
 70
128
  0
VERTEX
  8
13 町界
 10
113.394999
 20
31.733663
  0
VERTEX
  8
13 町界
 10
92.590281
 20
32.841958
  0
SEQEND
  0
POLYLINE
  8
13 町界
  6
AIGENLINE003
 40
0.176390
 41
0.176390
 62
30
 66
1
 10
0
 20
0
 30
0
 70
128
  0
VERTEX
  8
13 町界
 10
92.939960
 20
41.032379
  0
VERTEX
  8
13 町界
 10
93.174917
 20
46.133220
  0
SEQEND
  0
POLYLINE
  8
13 町界
  6
AIGENLINE003
 40
0.176390
 41
0.176390
 62
30
 66
1
 10
0
 20
0
 30
0
 70
128
  0
VERTEX
  8
13 町界
 10
114.752547
 20
40.339911
  0
VERTEX
  8
13 町界
 10
92.939960
 20
41.032379
  0
SEQEND
  0
POLYLINE
  8
13 町界
  6
AIGENLINE003
 40
0.176390
 41
0.176390
 62
30
 66
1
 10
0
 20
0
 30
0
 70
128
  0
VERTEX
  8
13 町界
 10
93.174917
 20
46.133220
  0
VERTEX
  8
13 町界
 10
93.311344
 20
48.934617
  0
VERTEX
  8
13 町界
 10
93.381279
 20
55.034541
  0
SEQEND
  0
POLYLINE
  8
13 町界
  6
AIGENLINE003
 40
0.176390
 41
0.176390
 62
30
 66
1
 10
0
 20
0
 30
0
 70
128
  0
VERTEX
  8
13 町界
 10
114.825928
 20
45.740132
  0
VERTEX
  8
13 町界
 10
93.174917
 20
46.133220
  0
SEQEND
  0
POLYLINE
  8
13 町界
  6
AIGENLINE003
 40
0.176390
 41
0.176390
 62
30
 66
1
 10
0
 20
0
 30
0
 70
128
  0
VERTEX
  8
13 町界
 10
93.381279
 20
55.034541
  0
VERTEX
  8
13 町界
 10
93.353029
 20
60.834568
  0
SEQEND
  0
POLYLINE
  8
13 町界
  6
AIGENLINE003
 40
0.176390
 41
0.176390
 62
30
 66
1
 10
0
 20
0
 30
0
 70
128
  0
VERTEX
  8
13 町界
 10
115.281717
 20
54.742223
  0
VERTEX
  8
13 町界
 10
93.381279
 20
55.034541
  0
SEQEND
  0
POLYLINE
  8
13 町界
  6
AIGENLINE003
 40
0.176390
 41
0.176390
 62
30
 66
1
 10
0
 20
0
 30
0
 70
128
  0
VERTEX
  8
13 町界
 10
93.353029
 20
60.834568
  0
VERTEX
  8
13 町界
 10
93.265351
 20
66.509365
  0
SEQEND
  0
POLYLINE
  8
13 町界
  6
AIGENLINE003
 40
0.176390
 41
0.176390
 62
30
 66
1
 10
0
 20
0
 30
0
 70
128
  0
VERTEX
  8
13 町界
 10
115.215571
 20
60.041330
  0
VERTEX
  8
13 町界
 10
93.353029
 20
60.834568
  0
SEQEND
  0
POLYLINE
  8
13 町界
  6
AIGENLINE003
 40
0.176390
 41
0.176390
 62
30
 66
1
 10
0
 20
0
 30
0
 70
128
  0
VERTEX
  8
13 町界
 10
93.265351
 20
66.509365
  0
VERTEX
  8
13 町界
 10
93.341661
 20
71.293686
  0
SEQEND
  0
POLYLINE
  8
13 町界
  6
AIGENLINE003
 40
0.176390
 41
0.176390
 62
30
 66
1
 10
0
 20
0
 30
0
 70
128
  0
VERTEX
  8
13 町界
 10
113.803073
 20
65.385913
  0
VERTEX
  8
13 町界
 10
93.265351
 20
66.509365
  0
SEQEND
  0
POLYLINE
  8
13 町界
  6
AIGENLINE003
 40
0.176390
 41
0.176390
 62
30
 66
1
 10
0
 20
0
 30
0
 70
128
  0
VERTEX
  8
13 町界
 10
93.341661
 20
71.293686
  0
VERTEX
  8
13 町界
 10
93.375423
 20
76.633703
  0
SEQEND
  0
POLYLINE
  8
13 町界
  6
AIGENLINE003
 40
0.176390
 41
0.176390
 62
30
 66
1
 10
0
 20
0
 30
0
 70
128
  0
VERTEX
  8
13 町界
 10
115.480673
 20
69.961803
  0
VERTEX
  8
13 町界
 10
93.341661
 20
71.293686
  0
SEQEND
  0
POLYLINE
  8
13 町界
  6
AIGENLINE003
 40
0.176390
 41
0.176390
 62
30
 66
1
 10
0
 20
0
 30
0
 70
128
  0
VERTEX
  8
13 町界
 10
93.375423
 20
76.633703
  0
VERTEX
  8
13 町界
 10
93.407462
 20
82.273360
  0
SEQEND
  0
POLYLINE
  8
13 町界
  6
AIGENLINE003
 40
0.176390
 41
0.176390
 62
30
 66
1
 10
0
 20
0
 30
0
 70
128
  0
VERTEX
  8
13 町界
 10
115.480673
 20
74.942840
  0
VERTEX
  8
13 町界
 10
93.375423
 20
76.633703
  0
SEQEND
  0
POLYLINE
  8
13 町界
  6
AIGENLINE003
 40
0.176390
 41
0.176390
 62
30
 66
1
 10
0
 20
0
 30
0
 70
128
  0
VERTEX
  8
13 町界
 10
93.407462
 20
82.273360
  0
VERTEX
  8
13 町界
 10
93.519429
 20
88.033941
  0
SEQEND
  0
POLYLINE
  8
13 町界
  6
AIGENLINE003
 40
0.176390
 41
0.176390
 62
30
 66
1
 10
0
 20
0
 30
0
 70
128
  0
VERTEX
  8
13 町界
 10
115.480673
 20
81.712926
  0
VERTEX
  8
13 町界
 10
93.407462
 20
82.273360
  0
SEQEND
  0
POLYLINE
  8
13 町界
  6
AIGENLINE003
 40
0.176390
 41
0.176390
 62
30
 66
1
 10
0
 20
0
 30
0
 70
128
  0
VERTEX
  8
13 町界
 10
93.519429
 20
88.033941
  0
VERTEX
  8
13 町界
 10
93.491523
 20
93.733457
  0
SEQEND
  0
POLYLINE
  8
13 町界
  6
AIGENLINE003
 40
0.176390
 41
0.176390
 62
30
 66
1
 10
0
 20
0
 30
0
 70
128
  0
VERTEX
  8
13 町界
 10
115.480673
 20
87.240875
  0
VERTEX
  8
13 町界
 10
93.519429
 20
88.033941
  0
SEQEND
  0
POLYLINE
  8
13 町界
  6
AIGENLINE003
 40
0.176390
 41
0.176390
 62
30
 66
1
 10
0
 20
0
 30
0
 70
128
  0
VERTEX
  8
13 町界
 10
93.491523
 20
93.733457
  0
VERTEX
  8
13 町界
 10
93.463618
 20
99.433145
  0
SEQEND
  0
POLYLINE
  8
13 町界
  6
AIGENLINE003
 40
0.176390
 41
0.176390
 62
30
 66
1
 10
0
 20
0
 30
0
 70
128
  0
VERTEX
  8
13 町界
 10
115.480673
 20
92.040698
  0
VERTEX
  8
13 町界
 10
93.491523
 20
93.733457
  0
SEQEND
  0
POLYLINE
  8
13 町界
  6
AIGENLINE003
 40
0.176390
 41
0.176390
 62
30
 66
1
 10
0
 20
0
 30
0
 70
128
  0
VERTEX
  8
13 町界
 10
93.463618
 20
99.433145
  0
VERTEX
  8
13 町界
 10
93.634151
 20
105.433505
  0
SEQEND
  0
POLYLINE
  8
13 町界
  6
AIGENLINE003
 40
0.176390
 41
0.176390
 62
30
 66
1
 10
0
 20
0
 30
0
 70
128
  0
VERTEX
  8
13 町界
 10
114.891558
 20
97.537555
  0
VERTEX
  8
13 町界
 10
93.463618
 20
99.433145
  0
SEQEND
  0
POLYLINE
  8
13 町界
  6
AIGENLINE003
 40
0.176390
 41
0.176390
 62
30
 66
1
 10
0
 20
0
 30
0
 70
128
  0
VERTEX
  8
13 町界
 10
93.634151
 20
105.433505
  0
VERTEX
  8
13 町界
 10
94.299748
 20
112.436739
  0
SEQEND
  0
POLYLINE
  8
13 町界
  6
AIGENLINE003
 40
0.176390
 41
0.176390
 62
30
 66
1
 10
0
 20
0
 30
0
 70
128
  0
VERTEX
  8
13 町界
 10
113.441852
 20
103.631020
  0
VERTEX
  8
13 町界
 10
93.634151
 20
105.433505
  0
SEQEND
  0
POLYLINE
  8
13 町界
  6
AIGENLINE003
 40
0.176390
 41
0.176390
 62
30
 66
1
 10
0
 20
0
 30
0
 70
128
  0
VERTEX
  8
13 町界
 10
94.299748
 20
112.436739
  0
VERTEX
  8
13 町界
 10
94.793950
 20
117.638177
  0
SEQEND
  0
POLYLINE
  8
13 町界
  6
AIGENLINE003
 40
0.176390
 41
0.176390
 62
30
 66
1
 10
0
 20
0
 30
0
 70
128
  0
VERTEX
  8
13 町界
 10
114.607680
 20
110.636321
  0
VERTEX
  8
13 町界
 10
94.299748
 20
112.436739
  0
SEQEND
  0
POLYLINE
  8
13 町界
  6
AIGENLINE003
 40
0.176390
 41
0.176390
 62
30
 66
1
 10
0
 20
0
 30
0
 70
128
  0
VERTEX
  8
13 町界
 10
94.793950
 20
117.638177
  0
VERTEX
  8
13 町界
 10
94.965000
 20
119.377961
  0
SEQEND
  0
POLYLINE
  8
13 町界
  6
AIGENLINE003
 40
0.176390
 41
0.176390
 62
30
 66
1
 10
0
 20
0
 30
0
 70
128
  0
VERTEX
  8
13 町界
 10
94.965000
 20
119.377961
  0
VERTEX
  8
13 町界
 10
95.540851
 20
126.986331
  0
VERTEX
  8
13 町界
 10
96.622618
 20
128.632580
  0
VERTEX
  8
13 町界
 10
98.714665
 20
129.737343
  0
VERTEX
  8
13 町界
 10
98.817330
 20
131.571006
  0
SEQEND
  0
POLYLINE
  8
13 町界
  6
AIGENLINE003
 40
0.176390
 41
0.176390
 62
30
 66
1
 10
0
 20
0
 30
0
 70
128
  0
VERTEX
  8
13 町界
 10
114.775113
 20
117.236821
  0
VERTEX
  8
13 町界
 10
102.671038
 20
118.177338
  0
VERTEX
  8
13 町界
 10
102.475872
 20
117.176532
  0
VERTEX
  8
13 町界
 10
94.793950
 20
117.638177
  0
SEQEND
  0
POLYLINE
  8
13 町界
  6
AIGENLINE003
 40
0.176390
 41
0.176390
 62
30
 66
1
 10
0
 20
0
 30
0
 70
128
  0
VERTEX
  8
13 町界
 10
112.168365
 20
-3.660782
  0
VERTEX
  8
13 町界
 10
112.391436
 20
0.020326
  0
VERTEX
  8
13 町界
 10
113.250993
 20
-0.055122
  0
SEQEND
  0
POLYLINE
  8
13 町界
  6
AIGENLINE003
 40
0.176390
 41
0.176390
 62
30
 66
1
 10
0
 20
0
 30
0
 70
128
  0
VERTEX
  8
13 町界
 10
113.081149
 20
-11.053658
  0
VERTEX
  8
13 町界
 10
113.325063
 20
-7.055945
  0
VERTEX
  8
13 町界
 10
111.984568
 20
-6.981185
  0
VERTEX
  8
13 町界
 10
112.168365
 20
-3.660782
  0
SEQEND
  0
POLYLINE
  8
13 町界
  6
AIGENLINE003
 40
0.176390
 41
0.176390
 62
30
 66
1
 10
0
 20
0
 30
0
 70
128
  0
VERTEX
  8
13 町界
 10
113.250993
 20
-0.055122
  0
VERTEX
  8
13 町界
 10
113.430828
 20
4.035266
  0
SEQEND
  0
POLYLINE
  8
13 町界
  6
AIGENLINE003
 40
0.176390
 41
0.176390
 62
30
 66
1
 10
0
 20
0
 30
0
 70
128
  0
VERTEX
  8
13 町界
 10
113.430828
 20
4.035266
  0
VERTEX
  8
13 町界
 10
113.812202
 20
7.837297
  0
VERTEX
  8
13 町界
 10
114.637825
 20
7.864514
  0
VERTEX
  8
13 町界
 10
114.873126
 20
12.302169
  0
VERTEX
  8
13 町界
 10
114.090223
 20
12.337998
  0
SEQEND
  0
POLYLINE
  8
13 町界
  6
AIGENLINE003
 40
0.176390
 41
0.176390
 62
30
 66
1
 10
0
 20
0
 30
0
 70
128
  0
VERTEX
  8
13 町界
 10
114.090223
 20
12.337998
  0
VERTEX
  8
13 町界
 10
114.495197
 20
31.639267
  0
SEQEND
  0
POLYLINE
  8
13 町界
  6
AIGENLINE003
 40
0.176390
 41
0.176390
 62
30
 66
1
 10
0
 20
0
 30
0
 70
128
  0
VERTEX
  8
13 町界
 10
113.394999
 20
31.733663
  0
VERTEX
  8
13 町界
 10
113.666302
 20
37.534896
  0
VERTEX
  8
13 町界
 10
114.716201
 20
37.539719
  0
VERTEX
  8
13 町界
 10
114.752547
 20
40.339911
  0
SEQEND
  0
POLYLINE
  8
13 町界
  6
AIGENLINE003
 40
0.176390
 41
0.176390
 62
30
 66
1
 10
0
 20
0
 30
0
 70
128
  0
VERTEX
  8
13 町界
 10
114.752547
 20
40.339911
  0
VERTEX
  8
13 町界
 10
114.825928
 20
45.740132
  0
SEQEND
  0
POLYLINE
  8
13 町界
  6
AIGENLINE003
 40
0.176390
 41
0.176390
 62
30
 66
1
 10
0
 20
0
 30
0
 70
128
  0
VERTEX
  8
13 町界
 10
114.825928
 20
45.740132
  0
VERTEX
  8
13 町界
 10
115.836209
 20
45.724973
  0
VERTEX
  8
13 町界
 10
115.752492
 20
54.734472
  0
VERTEX
  8
13 町界
 10
115.281717
 20
54.742223
  0
SEQEND
  0
POLYLINE
  8
13 町界
  6
AIGENLINE003
 40
0.176390
 41
0.176390
 62
30
 66
1
 10
0
 20
0
 30
0
 70
128
  0
VERTEX
  8
13 町界
 10
115.281717
 20
54.742223
  0
VERTEX
  8
13 町界
 10
115.215571
 20
60.041330
  0
SEQEND
  0
POLYLINE
  8
13 町界
  6
AIGENLINE003
 40
0.176390
 41
0.176390
 62
30
 66
1
 10
0
 20
0
 30
0
 70
128
  0
VERTEX
  8
13 町界
 10
115.215571
 20
60.041330
  0
VERTEX
  8
13 町界
 10
115.191972
 20
62.810515
  0
SEQEND
  0
POLYLINE
  8
13 町界
  6
AIGENLINE003
 40
0.176390
 41
0.176390
 62
30
 66
1
 10
0
 20
0
 30
0
 70
128
  0
VERTEX
  8
13 町界
 10
114.495197
 20
31.639267
  0
VERTEX
  8
13 町界
 10
113.394999
 20
31.733663
  0
SEQEND
  0
POLYLINE
  8
13 町界
  6
AIGENLINE003
 40
0.176390
 41
0.176390
 62
30
 66
1
 10
0
 20
0
 30
0
 70
128
  0
VERTEX
  8
13 町界
 10
113.803073
 20
65.385913
  0
VERTEX
  8
13 町界
 10
114.402695
 20
65.368687
  0
VERTEX
  8
13 町界
 10
114.521724
 20
67.207432
  0
VERTEX
  8
13 町界
 10
115.480673
 20
67.208896
  0
VERTEX
  8
13 町界
 10
115.480673
 20
69.961803
  0
SEQEND
  0
POLYLINE
  8
13 町界
  6
AIGENLINE003
 40
0.176390
 41
0.176390
 62
30
 66
1
 10
0
 20
0
 30
0
 70
128
  0
VERTEX
  8
13 町界
 10
115.480673
 20
69.961803
  0
VERTEX
  8
13 町界
 10
115.480673
 20
74.942840
  0
SEQEND
  0
POLYLINE
  8
13 町界
  6
AIGENLINE003
 40
0.176390
 41
0.176390
 62
30
 66
1
 10
0
 20
0
 30
0
 70
128
  0
VERTEX
  8
13 町界
 10
115.480673
 20
74.942840
  0
VERTEX
  8
13 町界
 10
115.480673
 20
81.712926
  0
SEQEND
  0
POLYLINE
  8
13 町界
  6
AIGENLINE003
 40
0.176390
 41
0.176390
 62
30
 66
1
 10
0
 20
0
 30
0
 70
128
  0
VERTEX
  8
13 町界
 10
115.480673
 20
81.712926
  0
VERTEX
  8
13 町界
 10
115.480673
 20
87.240875
  0
SEQEND
  0
POLYLINE
  8
13 町界
  6
AIGENLINE003
 40
0.176390
 41
0.176390
 62
30
 66
1
 10
0
 20
0
 30
0
 70
128
  0
VERTEX
  8
13 町界
 10
115.480673
 20
87.240875
  0
VERTEX
  8
13 町界
 10
115.480673
 20
92.040698
  0
SEQEND
  0
POLYLINE
  8
13 町界
  6
AIGENLINE003
 40
0.176390
 41
0.176390
 62
30
 66
1
 10
0
 20
0
 30
0
 70
128
  0
VERTEX
  8
13 町界
 10
115.480673
 20
92.040698
  0
VERTEX
  8
13 町界
 10
115.480673
 20
94.460807
  0
SEQEND
  0
POLYLINE
  8
13 町界
  6
AIGENLINE003
 40
0.176390
 41
0.176390
 62
30
 66
1
 10
0
 20
0
 30
0
 70
128
  0
VERTEX
  8
13 町界
 10
115.191972
 20
62.810515
  0
VERTEX
  8
13 町界
 10
113.742267
 20
62.834287
  0
VERTEX
  8
13 町界
 10
113.803073
 20
65.385913
  0
SEQEND
  0
POLYLINE
  8
13 町界
  6
AIGENLINE003
 40
0.176390
 41
0.176390
 62
30
 66
1
 10
0
 20
0
 30
0
 70
128
  0
VERTEX
  8
13 町界
 10
113.441852
 20
103.631020
  0
VERTEX
  8
13 町界
 10
113.821504
 20
107.832685
  0
VERTEX
  8
13 町界
 10
114.520174
 20
108.035861
  0
VERTEX
  8
13 町界
 10
114.607680
 20
110.636321
  0
SEQEND
  0
POLYLINE
  8
13 町界
  6
AIGENLINE003
 40
0.176390
 41
0.176390
 62
30
 66
1
 10
0
 20
0
 30
0
 70
128
  0
VERTEX
  8
13 町界
 10
114.607680
 20
110.636321
  0
VERTEX
  8
13 町界
 10
114.775113
 20
117.236821
  0
SEQEND
  0
POLYLINE
  8
13 町界
  6
AIGENLINE003
 40
0.176390
 41
0.176390
 62
30
 66
1
 10
0
 20
0
 30
0
 70
128
  0
VERTEX
  8
13 町界
 10
115.480673
 20
94.460807
  0
VERTEX
  8
13 町界
 10
114.787171
 20
94.438069
  0
VERTEX
  8
13 町界
 10
114.891558
 20
97.537555
  0
SEQEND
  0
POLYLINE
  8
13 町界
  6
AIGENLINE003
 40
0.176390
 41
0.176390
 62
30
 66
1
 10
0
 20
0
 30
0
 70
128
  0
VERTEX
  8
13 町界
 10
114.891558
 20
97.537555
  0
VERTEX
  8
13 町界
 10
115.225906
 20
103.555916
  0
VERTEX
  8
13 町界
 10
113.441852
 20
103.631020
  0
SEQEND
  0
POLYLINE
  8
13 町界
  6
AIGENLINE003
 40
0.176390
 41
0.176390
 62
30
 66
1
 10
0
 20
0
 30
0
 70
128
  0
VERTEX
  8
13 町界
 10
122.084446
 20
-0.403079
  0
VERTEX
  8
13 町界
 10
113.250993
 20
-0.055122
  0
SEQEND
  0
POLYLINE
  8
13 町界
  6
AIGENLINE003
 40
0.176390
 41
0.176390
 62
30
 66
1
 10
0
 20
0
 30
0
 70
128
  0
VERTEX
  8
13 町界
 10
122.231552
 20
31.269606
  0
VERTEX
  8
13 町界
 10
114.495197
 20
31.639267
  0
SEQEND
  0
POLYLINE
  8
13 町界
  6
AIGENLINE003
 40
0.176390
 41
0.176390
 62
30
 66
1
 10
0
 20
0
 30
0
 70
128
  0
VERTEX
  8
13 町界
 10
124.337380
 20
62.427591
  0
VERTEX
  8
13 町界
 10
115.191972
 20
62.810515
  0
SEQEND
  0
POLYLINE
  8
13 町界
  6
AIGENLINE003
 40
0.176390
 41
0.176390
 62
30
 66
1
 10
0
 20
0
 30
0
 70
128
  0
VERTEX
  8
13 町界
 10
127.975768
 20
94.742187
  0
VERTEX
  8
13 町界
 10
115.480673
 20
94.460807
  0
SEQEND
  0
POLYLINE
  8
13 町界
  6
AIGENLINE003
 40
0.176390
 41
0.176390
 62
30
 66
1
 10
0
 20
0
 30
0
 70
128
  0
VERTEX
  8
13 町界
 10
118.815202
 20
118.398773
  0
VERTEX
  8
13 町界
 10
117.508641
 20
118.447866
  0
VERTEX
  8
13 町界
 10
117.371870
 20
117.196686
  0
VERTEX
  8
13 町界
 10
114.775113
 20
117.236821
  0
SEQEND
  0
POLYLINE
  8
13 町界
  6
AIGENLINE003
 40
0.176390
 41
0.176390
 62
30
 66
1
 10
0
 20
0
 30
0
 70
128
  0
VERTEX
  8
13 町界
 10
119.607234
 20
131.571006
  0
VERTEX
  8
13 町界
 10
118.815202
 20
118.398773
  0
SEQEND
  0
POLYLINE
  8
13 町界
  6
AIGENLINE003
 40
0.176390
 41
0.176390
 62
30
 66
1
 10
0
 20
0
 30
0
 70
128
  0
VERTEX
  8
13 町界
 10
127.670014
 20
106.541024
  0
VERTEX
  8
13 町界
 10
123.567568
 20
107.121957
  0
VERTEX
  8
13 町界
 10
123.629064
 20
113.851391
  0
VERTEX
  8
13 町界
 10
126.635445
 20
113.935968
  0
VERTEX
  8
13 町界
 10
126.579462
 20
118.434085
  0
VERTEX
  8
13 町界
 10
118.815202
 20
118.398773
  0
SEQEND
  0
POLYLINE
  8
13 町界
  6
AIGENLINE003
 40
0.176390
 41
0.176390
 62
30
 66
1
 10
0
 20
0
 30
0
 70
128
  0
VERTEX
  8
13 町界
 10
122.084446
 20
-0.403079
  0
VERTEX
  8
13 町界
 10
122.271171
 20
3.990135
  0
VERTEX
  8
13 町界
 10
129.454068
 20
3.454074
  0
SEQEND
  0
POLYLINE
  8
13 町界
  6
AIGENLINE003
 40
0.176390
 41
0.176390
 62
30
 66
1
 10
0
 20
0
 30
0
 70
128
  0
VERTEX
  8
13 町界
 10
128.059140
 20
-14.752336
  0
VERTEX
  8
13 町界
 10
121.144445
 20
-15.784149
  0
VERTEX
  8
13 町界
 10
122.084446
 20
-0.403079
  0
SEQEND
  0
POLYLINE
  8
13 町界
  6
AIGENLINE003
 40
0.176390
 41
0.176390
 62
30
 66
1
 10
0
 20
0
 30
0
 70
128
  0
VERTEX
  8
13 町界
 10
122.231552
 20
31.269606
  0
VERTEX
  8
13 町界
 10
123.138307
 20
49.512191
  0
VERTEX
  8
13 町界
 10
133.039057
 20
49.168712
  0
SEQEND
  0
POLYLINE
  8
13 町界
  6
AIGENLINE003
 40
0.176390
 41
0.176390
 62
30
 66
1
 10
0
 20
0
 30
0
 70
128
  0
VERTEX
  8
13 町界
 10
131.234160
 20
30.611933
  0
VERTEX
  8
13 町界
 10
122.231552
 20
31.269606
  0
SEQEND
  0
POLYLINE
  8
13 町界
  6
AIGENLINE003
 40
0.176390
 41
0.176390
 62
30
 66
1
 10
0
 20
0
 30
0
 70
128
  0
VERTEX
  8
13 町界
 10
156.543713
 20
47.979114
  0
VERTEX
  8
13 町界
 10
133.039057
 20
49.168712
  0
SEQEND
  0
POLYLINE
  8
13 町界
  6
AIGENLINE003
 40
0.176390
 41
0.176390
 62
30
 66
1
 10
0
 20
0
 30
0
 70
128
  0
VERTEX
  8
13 町界
 10
133.039057
 20
49.168712
  0
VERTEX
  8
13 町界
 10
133.212346
 20
54.525870
  0
VERTEX
  8
13 町界
 10
124.395086
 20
54.929293
  0
VERTEX
  8
13 町界
 10
124.337380
 20
62.427591
  0
SEQEND
  0
POLYLINE
  8
13 町界
  6
AIGENLINE003
 40
0.176390
 41
0.176390
 62
30
 66
1
 10
0
 20
0
 30
0
 70
128
  0
VERTEX
  8
13 町界
 10
124.337380
 20
62.427591
  0
VERTEX
  8
13 町界
 10
123.998208
 20
77.244437
  0
VERTEX
  8
13 町界
 10
128.509072
 20
76.946348
  0
SEQEND
  0
POLYLINE
  8
13 町界
  6
AIGENLINE003
 40
0.176390
 41
0.176390
 62
30
 66
1
 10
0
 20
0
 30
0
 70
128
  0
VERTEX
  8
13 町界
 10
128.059140
 20
-14.752336
  0
VERTEX
  8
13 町界
 10
128.134760
 20
-13.851438
  0
SEQEND
  0
POLYLINE
  8
13 町界
  6
AIGENLINE003
 40
0.176390
 41
0.176390
 62
30
 66
1
 10
0
 20
0
 30
0
 70
128
  0
VERTEX
  8
13 町界
 10
144.719382
 20
-10.493827
  0
VERTEX
  8
13 町界
 10
144.925572
 20
-6.695585
  0
VERTEX
  8
13 町界
 10
149.291742
 20
-6.952936
  0
SEQEND
  0
POLYLINE
  8
13 町界
  6
AIGENLINE003
 40
0.176390
 41
0.176390
 62
30
 66
1
 10
0
 20
0
 30
0
 70
128
  0
VERTEX
  8
13 町界
 10
128.134760
 20
-13.851438
  0
VERTEX
  8
13 町界
 10
128.372818
 20
-10.693988
  0
VERTEX
  8
13 町界
 10
133.723257
 20
-10.840750
  0
VERTEX
  8
13 町界
 10
135.663547
 20
-9.870605
  0
VERTEX
  8
13 町界
 10
144.719382
 20
-10.493827
  0
SEQEND
  0
POLYLINE
  8
13 町界
  6
AIGENLINE003
 40
0.176390
 41
0.176390
 62
30
 66
1
 10
0
 20
0
 30
0
 70
128
  0
VERTEX
  8
13 町界
 10
144.719382
 20
-10.493827
  0
VERTEX
  8
13 町界
 10
144.438605
 20
-14.774730
  0
VERTEX
  8
13 町界
 10
128.134760
 20
-13.851438
  0
SEQEND
  0
POLYLINE
  8
13 町界
  6
AIGENLINE003
 40
0.176390
 41
0.176390
 62
30
 66
1
 10
0
 20
0
 30
0
 70
128
  0
VERTEX
  8
13 町界
 10
127.670014
 20
106.541024
  0
VERTEX
  8
13 町界
 10
145.108680
 20
104.126514
  0
SEQEND
  0
POLYLINE
  8
13 町界
  6
AIGENLINE003
 40
0.176390
 41
0.176390
 62
30
 66
1
 10
0
 20
0
 30
0
 70
128
  0
VERTEX
  8
13 町界
 10
150.434659
 20
75.448842
  0
VERTEX
  8
13 町界
 10
128.509072
 20
76.946348
  0
SEQEND
  0
POLYLINE
  8
13 町界
  6
AIGENLINE003
 40
0.176390
 41
0.176390
 62
30
 66
1
 10
0
 20
0
 30
0
 70
128
  0
VERTEX
  8
13 町界
 10
128.509072
 20
76.946348
  0
VERTEX
  8
13 町界
 10
127.975768
 20
94.742187
  0
SEQEND
  0
POLYLINE
  8
13 町界
  6
AIGENLINE003
 40
0.176390
 41
0.176390
 62
30
 66
1
 10
0
 20
0
 30
0
 70
128
  0
VERTEX
  8
13 町界
 10
127.975768
 20
94.742187
  0
VERTEX
  8
13 町界
 10
127.670014
 20
106.541024
  0
SEQEND
  0
POLYLINE
  8
13 町界
  6
AIGENLINE003
 40
0.176390
 41
0.176390
 62
30
 66
1
 10
0
 20
0
 30
0
 70
128
  0
VERTEX
  8
13 町界
 10
129.454068
 20
3.454074
  0
VERTEX
  8
13 町界
 10
131.234160
 20
30.611933
  0
SEQEND
  0
POLYLINE
  8
13 町界
  6
AIGENLINE003
 40
0.176390
 41
0.176390
 62
30
 66
1
 10
0
 20
0
 30
0
 70
128
  0
VERTEX
  8
13 町界
 10
131.234160
 20
30.611933
  0
VERTEX
  8
13 町界
 10
155.040092
 20
29.123643
  0
SEQEND
  0
POLYLINE
  8
13 町界
  6
AIGENLINE003
 40
0.176390
 41
0.176390
 62
30
 66
1
 10
0
 20
0
 30
0
 70
128
  0
VERTEX
  8
13 町界
 10
149.682074
 20
-2.600719
  0
VERTEX
  8
13 町界
 10
129.176047
 20
-1.246788
  0
VERTEX
  8
13 町界
 10
129.454068
 20
3.454074
  0
SEQEND
  0
POLYLINE
  8
13 町界
  6
AIGENLINE003
 40
0.176390
 41
0.176390
 62
30
 66
1
 10
0
 20
0
 30
0
 70
128
  0
VERTEX
  8
13 町界
 10
145.108680
 20
104.126514
  0
VERTEX
  8
13 町界
 10
145.405305
 20
104.827595
  0
VERTEX
  8
13 町界
 10
159.152873
 20
114.984145
  0
VERTEX
  8
13 町界
 10
166.766754
 20
116.218875
  0
VERTEX
  8
13 町界
 10
168.060568
 20
117.924036
  0
VERTEX
  8
13 町界
 10
166.796382
 20
130.624202
  0
VERTEX
  8
13 町界
 10
166.610863
 20
131.571006
  0
SEQEND
  0
POLYLINE
  8
13 町界
  6
AIGENLINE003
 40
0.176390
 41
0.176390
 62
30
 66
1
 10
0
 20
0
 30
0
 70
128
  0
VERTEX
  8
13 町界
 10
156.837582
 20
49.280334
  0
VERTEX
  8
13 町界
 10
150.434659
 20
75.448842
  0
SEQEND
  0
POLYLINE
  8
13 町界
  6
AIGENLINE003
 40
0.176390
 41
0.176390
 62
30
 66
1
 10
0
 20
0
 30
0
 70
128
  0
VERTEX
  8
13 町界
 10
150.434659
 20
75.448842
  0
VERTEX
  8
13 町界
 10
144.483047
 20
99.697213
  0
VERTEX
  8
13 町界
 10
145.108680
 20
104.126514
  0
SEQEND
  0
POLYLINE
  8
13 町界
  6
AIGENLINE003
 40
0.176390
 41
0.176390
 62
30
 66
1
 10
0
 20
0
 30
0
 70
128
  0
VERTEX
  8
13 町界
 10
149.291742
 20
-6.952936
  0
VERTEX
  8
13 町界
 10
149.682074
 20
-2.600719
  0
SEQEND
  0
POLYLINE
  8
13 町界
  6
AIGENLINE003
 40
0.176390
 41
0.176390
 62
30
 66
1
 10
0
 20
0
 30
0
 70
128
  0
VERTEX
  8
13 町界
 10
149.682074
 20
-2.600719
  0
VERTEX
  8
13 町界
 10
152.582173
 20
-2.777109
  0
SEQEND
  0
POLYLINE
  8
13 町界
  6
AIGENLINE003
 40
0.176390
 41
0.176390
 62
30
 66
1
 10
0
 20
0
 30
0
 70
128
  0
VERTEX
  8
13 町界
 10
152.582173
 20
-2.777109
  0
VERTEX
  8
13 町界
 10
154.890057
 20
27.171295
  0
SEQEND
  0
POLYLINE
  8
13 町界
  6
AIGENLINE003
 40
0.176390
 41
0.176390
 62
30
 66
1
 10
0
 20
0
 30
0
 70
128
  0
VERTEX
  8
13 町界
 10
157.684392
 20
-3.312825
  0
VERTEX
  8
13 町界
 10
152.582173
 20
-2.777109
  0
SEQEND
  0
POLYLINE
  8
13 町界
  6
AIGENLINE003
 40
0.176390
 41
0.176390
 62
30
 66
1
 10
0
 20
0
 30
0
 70
128
  0
VERTEX
  8
13 町界
 10
154.890057
 20
27.171295
  0
VERTEX
  8
13 町界
 10
155.040092
 20
29.123643
  0
SEQEND
  0
POLYLINE
  8
13 町界
  6
AIGENLINE003
 40
0.176390
 41
0.176390
 62
30
 66
1
 10
0
 20
0
 30
0
 70
128
  0
VERTEX
  8
13 町界
 10
155.040092
 20
29.123643
  0
VERTEX
  8
13 町界
 10
156.543713
 20
47.979114
  0
SEQEND
  0
POLYLINE
  8
13 町界
  6
AIGENLINE003
 40
0.176390
 41
0.176390
 62
30
 66
1
 10
0
 20
0
 30
0
 70
128
  0
VERTEX
  8
13 町界
 10
156.543713
 20
47.979114
  0
VERTEX
  8
13 町界
 10
156.837582
 20
49.280334
  0
SEQEND
  0
POLYLINE
  8
13 町界
  6
AIGENLINE003
 40
0.176390
 41
0.176390
 62
30
 66
1
 10
0
 20
0
 30
0
 70
128
  0
VERTEX
  8
13 町界
 10
156.837582
 20
49.280334
  0
VERTEX
  8
13 町界
 10
169.718014
 20
41.111617
  0
SEQEND
  0
POLYLINE
  8
13 町界
  6
AIGENLINE003
 40
0.176390
 41
0.176390
 62
30
 66
1
 10
0
 20
0
 30
0
 70
128
  0
VERTEX
  8
13 町界
 10
154.890057
 20
27.171295
  0
VERTEX
  8
13 町界
 10
169.718014
 20
27.926464
  0
SEQEND
  0
POLYLINE
  8
13 町界
  6
AIGENLINE003
 40
0.176390
 41
0.176390
 62
30
 66
1
 10
0
 20
0
 30
0
 70
128
  0
VERTEX
  8
13 町界
 10
157.684392
 20
-3.312825
  0
VERTEX
  8
13 町界
 10
169.718014
 20
-4.423875
  0
SEQEND
  0
POLYLINE
  8
13 町界
  6
AIGENLINE003
 40
0.176390
 41
0.176390
 62
30
 66
1
 10
0
 20
0
 30
0
 70
128
  0
VERTEX
  8
13 町界
 10
59.930570
 20
-18.254987
  0
VERTEX
  8
13 町界
 10
60.104548
 20
-10.515876
  0
SEQEND
  0
POLYLINE
  8
13 町界
  6
AIGENLINE003
 40
0.176390
 41
0.176390
 62
30
 66
1
 10
0
 20
0
 30
0
 70
128
  0
VERTEX
  8
13 町界
 10
72.972061
 20
-18.254987
  0
VERTEX
  8
13 町界
 10
73.794066
 20
-8.448461
  0
SEQEND
  0
POLYLINE
  8
13 町界
  6
AIGENLINE003
 40
0.176390
 41
0.176390
 62
30
 66
1
 10
0
 20
0
 30
0
 70
128
  0
VERTEX
  8
13 町界
 10
88.863008
 20
-18.254987
  0
VERTEX
  8
13 町界
 10
89.694660
 20
-8.770924
  0
SEQEND
  0
POLYLINE
  8
13 町界
  6
AIGENLINE003
 40
0.176390
 41
0.176390
 62
30
 66
1
 10
0
 20
0
 30
0
 70
128
  0
VERTEX
  8
13 町界
 10
112.766954
 20
-18.254987
  0
VERTEX
  8
13 町界
 10
113.081149
 20
-11.053658
  0
SEQEND
  0
POLYLINE
  8
13 町界
  6
AIGENLINE003
 40
0.176390
 41
0.176390
 62
30
 66
1
 10
0
 20
0
 30
0
 70
128
  0
VERTEX
  8
13 町界
 10
127.790249
 20
-18.254987
  0
VERTEX
  8
13 町界
 10
128.059140
 20
-14.752336
  0
SEQEND
  0
POLYLINE
  8
13 町界
  6
AIGENLINE003
 40
0.176390
 41
0.176390
 62
30
 66
1
 10
0
 20
0
 30
0
 70
128
  0
VERTEX
  8
13 町界
 10
148.377408
 20
-18.254987
  0
VERTEX
  8
13 町界
 10
149.291742
 20
-6.952936
  0
SEQEND
  0
POLYLINE
  8
13 町界
  6
AIGENLINE003
 40
0.176390
 41
0.176390
 62
30
 66
1
 10
0
 20
0
 30
0
 70
128
  0
VERTEX
  8
13 町界
 10
157.684392
 20
-3.312825
  0
VERTEX
  8
13 町界
 10
157.304395
 20
-7.614743
  0
VERTEX
  8
13 町界
 10
157.947254
 20
-7.724642
  0
VERTEX
  8
13 町界
 10
156.693576
 20
-18.254987
  0
SEQEND
  0
POLYLINE
  8
14 公・官庁施設
 40
0.105834
 41
0.105834
 66
1
 10
0
 20
0
 30
0
 70
1
  0
VERTEX
  8
14 公・官庁施設
 10
130.201486
 20
35.866082
  0
VERTEX
  8
14 公・官庁施設
 10
125.130274
 20
36.202325
  0
VERTEX
  8
14 公・官庁施設
 10
124.887565
 20
32.561181
  0
VERTEX
  8
14 公・官庁施設
 10
129.958778
 20
32.224937
  0
SEQEND
  0
POLYLINE
  8
14 公・官庁施設
 40
0.105834
 41
0.105834
 66
1
 10
0
 20
0
 30
0
 70
1
  0
VERTEX
  8
14 公・官庁施設
 10
131.205221
 20
75.629021
  0
VERTEX
  8
14 公・官庁施設
 10
127.114144
 20
75.919789
  0
VERTEX
  8
14 公・官庁施設
 10
126.694874
 20
69.308265
  0
VERTEX
  8
14 公・官庁施設
 10
130.636432
 20
68.996482
  0
SEQEND
  0
POLYLINE
  8
14 公・官庁施設
 40
0.105834
 41
0.105834
 66
1
 10
0
 20
0
 30
0
 70
1
  0
VERTEX
  8
14 公・官庁施設
 10
124.156167
 20
88.225403
  0
VERTEX
  8
14 公・官庁施設
 10
124.576471
 20
88.217307
  0
VERTEX
  8
14 公・官庁施設
 10
124.578194
 20
87.797520
  0
VERTEX
  8
14 公・官庁施設
 10
125.168687
 20
87.680041
  0
VERTEX
  8
14 公・官庁施設
 10
125.199693
 20
87.530179
  0
VERTEX
  8
14 公・官庁施設
 10
125.999649
 20
87.523977
  0
VERTEX
  8
14 公・官庁施設
 10
125.998615
 20
87.724139
  0
VERTEX
  8
14 公・官庁施設
 10
126.598410
 20
87.746876
  0
VERTEX
  8
14 公・官庁施設
 10
126.466118
 20
96.775840
  0
VERTEX
  8
14 公・官庁施設
 10
124.426092
 20
96.736221
  0
VERTEX
  8
14 公・官庁施設
 10
124.530306
 20
89.506987
  0
VERTEX
  8
14 公・官庁施設
 10
124.130328
 20
89.485283
  0
SEQEND
  0
POLYLINE
  8
14 公・官庁施設
 40
0.105834
 41
0.105834
 66
1
 10
0
 20
0
 30
0
 70
1
  0
VERTEX
  8
14 公・官庁施設
 10
124.303618
 20
110.184925
  0
VERTEX
  8
14 公・官庁施設
 10
124.353916
 20
110.055388
  0
VERTEX
  8
14 公・官庁施設
 10
130.096582
 20
109.392203
  0
VERTEX
  8
14 公・官庁施設
 10
130.266427
 20
109.493145
  0
VERTEX
  8
14 公・官庁施設
 10
130.652280
 20
112.474550
  0
VERTEX
  8
14 公・官庁施設
 10
130.571664
 20
112.604430
  0
VERTEX
  8
14 公・官庁施設
 10
124.718582
 20
113.316881
  0
SEQEND
  0
POLYLINE
  8
14 公・官庁施設
 40
0.105834
 41
0.105834
 66
1
 10
0
 20
0
 30
0
 70
1
  0
VERTEX
  8
14 公・官庁施設
 10
138.719366
 20
38.445785
  0
VERTEX
  8
14 公・官庁施設
 10
138.939165
 20
38.436828
  0
VERTEX
  8
14 公・官庁施設
 10
138.992564
 20
39.867585
  0
VERTEX
  8
14 公・官庁施設
 10
138.792403
 20
39.896180
  0
VERTEX
  8
14 公・官庁施設
 10
138.771732
 20
40.066024
  0
VERTEX
  8
14 公・官庁施設
 10
133.090389
 20
40.409502
  0
VERTEX
  8
14 公・官庁施設
 10
133.061450
 20
40.219332
  0
VERTEX
  8
14 公・官庁施設
 10
132.811335
 20
40.217954
  0
VERTEX
  8
14 公・官庁施設
 10
132.777917
 20
38.787885
  0
VERTEX
  8
14 公・官庁施設
 10
132.958097
 20
38.759291
  0
VERTEX
  8
14 公・官庁施設
 10
133.008912
 20
38.539492
  0
VERTEX
  8
14 公・官庁施設
 10
138.670101
 20
38.295578
  0
SEQEND
  0
POLYLINE
  8
14 公・官庁施設
 40
0.105834
 41
0.105834
 66
1
 10
0
 20
0
 30
0
 70
1
  0
VERTEX
  8
14 公・官庁施設
 10
145.392558
 20
84.534994
  0
VERTEX
  8
14 公・官庁施設
 10
145.042534
 20
84.533616
  0
VERTEX
  8
14 公・官庁施設
 10
144.950377
 20
85.003185
  0
VERTEX
  8
14 公・官庁施設
 10
144.800515
 20
85.002496
  0
VERTEX
  8
14 公・官庁施設
 10
144.354200
 20
88.479997
  0
VERTEX
  8
14 公・官庁施設
 10
136.373241
 20
87.537069
  0
VERTEX
  8
14 公・官庁施設
 10
136.373241
 20
84.825417
  0
VERTEX
  8
14 公・官庁施設
 10
137.161140
 20
77.889707
  0
VERTEX
  8
14 公・官庁施設
 10
139.814741
 20
77.889707
  0
VERTEX
  8
14 公・官庁施設
 10
145.580662
 20
78.556337
  0
VERTEX
  8
14 公・官庁施設
 10
145.144510
 20
81.994220
  0
VERTEX
  8
14 公・官庁施設
 10
145.364308
 20
82.035130
  0
VERTEX
  8
14 公・官庁施設
 10
145.312115
 20
82.454832
  0
VERTEX
  8
14 公・官庁施設
 10
145.661794
 20
82.526490
  0
SEQEND
  0
POLYLINE
  8
14 公・官庁施設
 40
0.105834
 41
0.105834
 66
1
 10
0
 20
0
 30
0
 70
1
  0
VERTEX
  8
14 公・官庁施設
 10
143.637615
 20
109.085932
  0
VERTEX
  8
14 公・官庁施設
 10
131.641717
 20
110.499464
  0
VERTEX
  8
14 公・官庁施設
 10
131.411584
 20
108.328351
  0
VERTEX
  8
14 公・官庁施設
 10
143.337546
 20
106.964429
  0
SEQEND
  0
POLYLINE
  8
14 公・官庁施設
 40
0.105834
 41
0.105834
 66
1
 10
0
 20
0
 30
0
 70
1
  0
VERTEX
  8
14 公・官庁施設
 10
151.562074
 20
62.809999
  0
VERTEX
  8
14 公・官庁施設
 10
140.802284
 20
62.809999
  0
VERTEX
  8
14 公・官庁施設
 10
140.361309
 20
51.609234
  0
VERTEX
  8
14 公・官庁施設
 10
151.121099
 20
51.021152
  0
VERTEX
  8
14 公・官庁施設
 10
153.796405
 20
53.490440
  0
SEQEND
  0
POLYLINE
  8
14 公・官庁施設
 40
0.105834
 41
0.105834
 66
1
 10
0
 20
0
 30
0
 70
1
  0
VERTEX
  8
14 公・官庁施設
 10
132.511954
 20
42.084174
  0
VERTEX
  8
14 公・官庁施設
 10
140.890479
 20
42.084174
  0
VERTEX
  8
14 公・官庁施設
 10
140.890479
 20
47.023094
  0
VERTEX
  8
14 公・官庁施設
 10
132.423759
 20
47.023094
  0
SEQEND
  0
POLYLINE
  8
14 公・官庁施設
 40
0.105834
 41
0.105834
 66
1
 10
0
 20
0
 30
0
 70
1
  0
VERTEX
  8
14 公・官庁施設
 10
54.194794
 20
27.884434
  0
VERTEX
  8
14 公・官庁施設
 10
51.637139
 20
27.884434
  0
VERTEX
  8
14 公・官庁施設
 10
51.637139
 20
27.531654
  0
VERTEX
  8
14 公・官庁施設
 10
47.756559
 20
27.531654
  0
VERTEX
  8
14 公・官庁施設
 10
47.756559
 20
23.827464
  0
VERTEX
  8
14 公・官庁施設
 10
54.194794
 20
23.827464
  0
SEQEND
  0
POLYLINE
  8
15 病院
 40
0.105834
 41
0.105834
 62
4
 66
1
 10
0
 20
0
 30
0
 70
1
  0
VERTEX
  8
15 病院
 10
82.998385
 20
106.691317
  0
VERTEX
  8
15 病院
 10
81.647038
 20
106.934887
  0
VERTEX
  8
15 病院
 10
81.618616
 20
104.614601
  0
VERTEX
  8
15 病院
 10
82.118847
 20
104.547076
  0
VERTEX
  8
15 病院
 10
82.138484
 20
104.647416
  0
VERTEX
  8
15 病院
 10
82.738623
 20
104.600131
  0
SEQEND
  0
POLYLINE
  8
15 病院
 40
0.105834
 41
0.105834
 62
4
 66
1
 10
0
 20
0
 30
0
 70
1
  0
VERTEX
  8
15 病院
 10
142.604425
 20
18.165069
  0
VERTEX
  8
15 病院
 10
140.213858
 20
18.273935
  0
VERTEX
  8
15 病院
 10
140.214375
 20
18.173682
  0
VERTEX
  8
15 病院
 10
139.064222
 20
18.178505
  0
VERTEX
  8
15 病院
 10
139.063361
 20
18.328368
  0
VERTEX
  8
15 病院
 10
133.882422
 20
18.643941
  0
VERTEX
  8
15 病院
 10
133.853138
 20
18.504413
  0
VERTEX
  8
15 病院
 10
133.809902
 20
18.504069
  0
VERTEX
  8
15 病院
 10
133.809902
 20
16.370852
  0
VERTEX
  8
15 病院
 10
133.823166
 20
16.323999
  0
VERTEX
  8
15 病院
 10
137.613483
 20
16.241660
  0
VERTEX
  8
15 病院
 10
137.510130
 20
14.811592
  0
VERTEX
  8
15 病院
 10
137.339941
 20
14.830540
  0
VERTEX
  8
15 病院
 10
137.209716
 20
12.789998
  0
VERTEX
  8
15 病院
 10
142.079044
 20
12.503708
  0
VERTEX
  8
15 病院
 10
147.314589
 20
12.503708
  0
VERTEX
  8
15 病院
 10
147.358686
 20
12.917467
  0
VERTEX
  8
15 病院
 10
147.508894
 20
12.868546
  0
VERTEX
  8
15 病院
 10
147.769689
 20
16.989251
  0
VERTEX
  8
15 病院
 10
147.569183
 20
17.058498
  0
VERTEX
  8
15 病院
 10
147.625339
 20
17.878436
  0
VERTEX
  8
15 病院
 10
145.825093
 20
17.930457
  0
VERTEX
  8
15 病院
 10
145.795809
 20
17.760268
  0
VERTEX
  8
15 病院
 10
142.685041
 20
17.995570
  0
SEQEND
  0
POLYLINE
  8
15 病院
 40
0.105834
 41
0.105834
 62
4
 66
1
 10
0
 20
0
 30
0
 70
1
  0
VERTEX
  8
15 病院
 10
143.272433
 20
117.665308
  0
VERTEX
  8
15 病院
 10
143.245906
 20
116.945278
  0
VERTEX
  8
15 病院
 10
142.225290
 20
116.980418
  0
VERTEX
  8
15 病院
 10
142.234075
 20
117.280488
  0
VERTEX
  8
15 病院
 10
140.974195
 20
117.324585
  0
VERTEX
  8
15 病院
 10
140.982808
 20
117.564710
  0
VERTEX
  8
15 病院
 10
139.652648
 20
117.618454
  0
VERTEX
  8
15 病院
 10
139.644036
 20
117.388320
  0
VERTEX
  8
15 病院
 10
136.893454
 20
117.495463
  0
VERTEX
  8
15 病院
 10
136.874678
 20
117.195307
  0
VERTEX
  8
15 病院
 10
132.514366
 20
117.354903
  0
VERTEX
  8
15 病院
 10
132.470613
 20
116.054715
  0
VERTEX
  8
15 病院
 10
136.180832
 20
115.922078
  0
VERTEX
  8
15 病院
 10
136.217522
 20
116.682416
  0
VERTEX
  8
15 病院
 10
137.067260
 20
116.656233
  0
VERTEX
  8
15 病院
 10
137.049518
 20
116.226368
  0
VERTEX
  8
15 病院
 10
142.229768
 20
116.040590
  0
VERTEX
  8
15 病院
 10
142.247338
 20
116.610413
  0
VERTEX
  8
15 病院
 10
143.327555
 20
116.565626
  0
VERTEX
  8
15 病院
 10
143.256241
 20
114.645318
  0
VERTEX
  8
15 病院
 10
142.656791
 20
114.662543
  0
VERTEX
  8
15 病院
 10
142.612693
 20
113.342461
  0
VERTEX
  8
15 病院
 10
145.372921
 20
113.235231
  0
VERTEX
  8
15 病院
 10
145.426320
 20
114.675635
  0
VERTEX
  8
15 病院
 10
145.606500
 20
114.666333
  0
VERTEX
  8
15 病院
 10
145.659555
 20
116.126718
  0
VERTEX
  8
15 病院
 10
145.429593
 20
116.125254
  0
VERTEX
  8
15 病院
 10
145.482648
 20
117.585725
  0
SEQEND
  0
POLYLINE
  8
15 病院
 40
0.105834
 41
0.105834
 62
4
 66
1
 10
0
 20
0
 30
0
 70
1
  0
VERTEX
  8
15 病院
 10
138.172798
 20
123.991146
  0
VERTEX
  8
15 病院
 10
137.933535
 20
123.849896
  0
VERTEX
  8
15 病院
 10
137.994169
 20
123.740427
  0
VERTEX
  8
15 病院
 10
137.824669
 20
123.639485
  0
VERTEX
  8
15 病院
 10
137.874968
 20
123.549654
  0
VERTEX
  8
15 病院
 10
136.608543
 20
122.793709
  0
VERTEX
  8
15 病院
 10
137.132890
 20
121.906247
  0
VERTEX
  8
15 病院
 10
140.266568
 20
123.220817
  0
VERTEX
  8
15 病院
 10
140.757842
 20
122.388649
  0
VERTEX
  8
15 病院
 10
140.790571
 20
122.333355
  0
VERTEX
  8
15 病院
 10
140.963860
 20
122.437053
  0
VERTEX
  8
15 病院
 10
142.037014
 20
123.079309
  0
VERTEX
  8
15 病院
 10
140.777135
 20
125.203224
  0
VERTEX
  8
15 病院
 10
138.324039
 20
123.741891
  0
SEQEND
  0
POLYLINE
  8
16 学校
 40
0.105834
 41
0.105834
 62
1
 66
1
 10
0
 20
0
 30
0
 70
1
  0
VERTEX
  8
16 学校
 10
38.192052
 20
126.700472
  0
VERTEX
  8
16 学校
 10
38.521061
 20
126.862134
  0
VERTEX
  8
16 学校
 10
39.117583
 20
129.665168
  0
VERTEX
  8
16 学校
 10
39.371144
 20
130.935985
  0
VERTEX
  8
16 学校
 10
36.028002
 20
131.659804
  0
VERTEX
  8
16 学校
 10
35.807687
 20
129.648545
  0
VERTEX
  8
16 学校
 10
35.786499
 20
127.888779
  0
VERTEX
  8
16 学校
 10
36.286730
 20
127.821255
  0
VERTEX
  8
16 学校
 10
36.110340
 20
127.060228
  0
SEQEND
  0
POLYLINE
  8
16 学校
 40
0.105834
 41
0.105834
 62
1
 66
1
 10
0
 20
0
 30
0
 70
1
  0
VERTEX
  8
16 学校
 10
93.520462
 20
16.722254
  0
VERTEX
  8
16 学校
 10
93.407807
 20
15.241887
  0
VERTEX
  8
16 学校
 10
94.157637
 20
15.215705
  0
VERTEX
  8
16 学校
 10
94.111644
 20
14.475349
  0
VERTEX
  8
16 学校
 10
93.541477
 20
14.502565
  0
VERTEX
  8
16 学校
 10
93.495657
 20
13.612347
  0
VERTEX
  8
16 学校
 10
95.186176
 20
13.500725
  0
VERTEX
  8
16 学校
 10
95.328460
 20
15.081690
  0
VERTEX
  8
16 学校
 10
100.889740
 20
14.758882
  0
VERTEX
  8
16 学校
 10
100.964671
 20
15.828935
  0
VERTEX
  8
16 学校
 10
97.763296
 20
16.083185
  0
VERTEX
  8
16 学校
 10
97.761746
 20
16.453191
  0
VERTEX
  8
16 学校
 10
96.611421
 20
16.497633
  0
VERTEX
  8
16 学校
 10
96.543208
 20
16.167246
  0
VERTEX
  8
16 学校
 10
95.072832
 20
16.259920
  0
VERTEX
  8
16 学校
 10
94.923486
 20
16.059414
  0
VERTEX
  8
16 学校
 10
94.273737
 20
16.055969
  0
VERTEX
  8
16 学校
 10
94.290790
 20
16.656108
  0
SEQEND
  0
POLYLINE
  8
16 学校
 40
0.105834
 41
0.105834
 62
1
 66
1
 10
0
 20
0
 30
0
 70
1
  0
VERTEX
  8
16 学校
 10
36.640888
 20
19.017391
  0
VERTEX
  8
16 学校
 10
36.260375
 20
19.085605
  0
VERTEX
  8
16 学校
 10
36.239877
 20
19.185513
  0
VERTEX
  8
16 学校
 10
31.569848
 20
19.212730
  0
VERTEX
  8
16 学校
 10
31.050497
 20
19.130391
  0
VERTEX
  8
16 学校
 10
30.975738
 20
16.020139
  0
VERTEX
  8
16 学校
 10
36.635204
 20
16.027719
  0
SEQEND
  0
POLYLINE
  8
16 学校
 40
0.105834
 41
0.105834
 62
1
 66
1
 10
0
 20
0
 30
0
 70
1
  0
VERTEX
  8
16 学校
 10
71.457587
 20
74.346146
  0
VERTEX
  8
16 学校
 10
71.444151
 20
68.916296
  0
VERTEX
  8
16 学校
 10
72.194498
 20
68.870132
  0
VERTEX
  8
16 学校
 10
72.223092
 20
69.160211
  0
VERTEX
  8
16 学校
 10
73.012885
 20
69.164000
  0
VERTEX
  8
16 学校
 10
73.042686
 20
69.244358
  0
VERTEX
  8
16 学校
 10
73.412519
 20
69.216108
  0
VERTEX
  8
16 学校
 10
73.465401
 20
72.726252
  0
VERTEX
  8
16 学校
 10
73.095224
 20
72.744252
  0
VERTEX
  8
16 学校
 10
73.093329
 20
73.164040
  0
VERTEX
  8
16 学校
 10
74.233318
 20
73.170069
  0
VERTEX
  8
16 学校
 10
74.283617
 20
73.080065
  0
VERTEX
  8
16 学校
 10
74.683595
 20
73.082218
  0
VERTEX
  8
16 学校
 10
74.683250
 20
73.171964
  0
VERTEX
  8
16 学校
 10
78.552978
 20
73.121062
  0
VERTEX
  8
16 学校
 10
78.547983
 20
74.211097
  0
SEQEND
  0
POLYLINE
  8
16 学校
 40
0.105834
 41
0.105834
 62
1
 66
1
 10
0
 20
0
 30
0
 70
1
  0
VERTEX
  8
16 学校
 10
107.970317
 20
101.964272
  0
VERTEX
  8
16 学校
 10
113.492151
 20
101.531221
  0
VERTEX
  8
16 学校
 10
113.816681
 20
104.692805
  0
VERTEX
  8
16 学校
 10
108.254023
 20
105.225334
  0
SEQEND
  0
POLYLINE
  8
16 学校
 40
0.105834
 41
0.105834
 62
1
 66
1
 10
0
 20
0
 30
0
 70
1
  0
VERTEX
  8
16 学校
 10
124.111552
 20
43.065343
  0
VERTEX
  8
16 学校
 10
125.954518
 20
44.543643
  0
VERTEX
  8
16 学校
 10
125.954518
 20
44.593597
  0
VERTEX
  8
16 学校
 10
126.104036
 20
44.644929
  0
VERTEX
  8
16 学校
 10
126.154335
 20
44.564658
  0
VERTEX
  8
16 学校
 10
127.704982
 20
44.481975
  0
VERTEX
  8
16 学校
 10
127.755453
 20
44.292494
  0
VERTEX
  8
16 学校
 10
127.826078
 20
44.192585
  0
VERTEX
  8
16 学校
 10
127.827456
 20
43.892860
  0
VERTEX
  8
16 学校
 10
129.748281
 20
43.761601
  0
VERTEX
  8
16 学校
 10
129.796168
 20
44.201887
  0
VERTEX
  8
16 学校
 10
129.845606
 20
44.251841
  0
VERTEX
  8
16 学校
 10
130.030092
 20
47.663196
  0
VERTEX
  8
16 学校
 10
127.959576
 20
47.743468
  0
VERTEX
  8
16 学校
 10
127.914101
 20
46.832923
  0
VERTEX
  8
16 学校
 10
127.733921
 20
46.781935
  0
VERTEX
  8
16 学校
 10
127.678455
 20
45.891717
  0
VERTEX
  8
16 学校
 10
127.828317
 20
45.862434
  0
VERTEX
  8
16 学校
 10
127.879994
 20
45.542727
  0
VERTEX
  8
16 学校
 10
126.259411
 20
45.675019
  0
VERTEX
  8
16 学校
 10
125.709398
 20
45.632644
  0
VERTEX
  8
16 学校
 10
123.815961
 20
44.253908
  0
VERTEX
  8
16 学校
 10
123.484713
 20
44.552255
  0
VERTEX
  8
16 学校
 10
122.816533
 20
44.108869
  0
VERTEX
  8
16 学校
 10
123.088869
 20
43.690287
  0
VERTEX
  8
16 学校
 10
122.507850
 20
41.697631
  0
VERTEX
  8
16 学校
 10
123.559817
 20
41.373101
  0
VERTEX
  8
16 学校
 10
123.932579
 20
42.874828
  0
VERTEX
  8
16 学校
 10
123.881935
 20
42.974047
  0
VERTEX
  8
16 学校
 10
123.981499
 20
43.114608
  0
SEQEND
  0
POLYLINE
  8
16 学校
 40
0.105834
 41
0.105834
 62
1
 66
1
 10
0
 20
0
 30
0
 70
1
  0
VERTEX
  8
16 学校
 10
168.011992
 20
-12.035861
  0
VERTEX
  8
16 学校
 10
162.179925
 20
-11.563191
  0
VERTEX
  8
16 学校
 10
162.054867
 20
-12.553663
  0
VERTEX
  8
16 学校
 10
167.936716
 20
-12.966043
  0
SEQEND
  0
POLYLINE
  8
16 学校
 40
0.105834
 41
0.105834
 62
1
 66
1
 10
0
 20
0
 30
0
  0
VERTEX
  8
16 学校
 10
169.718014
 20
-12.277709
  0
VERTEX
  8
16 学校
 10
168.312923
 20
-12.184346
  0
VERTEX
  8
16 学校
 10
168.206813
 20
-12.975000
  0
VERTEX
  8
16 学校
 10
168.136877
 20
-12.995327
  0
VERTEX
  8
16 学校
 10
168.087957
 20
-13.215470
  0
VERTEX
  8
16 学校
 10
167.857651
 20
-13.216503
  0
VERTEX
  8
16 学校
 10
167.782375
 20
-14.156676
  0
VERTEX
  8
16 学校
 10
169.718014
 20
-14.298614
  0
SEQEND
  0
POLYLINE
  8
16 学校
 40
0.105834
 41
0.105834
 62
1
 66
1
 10
0
 20
0
 30
0
 70
1
  0
VERTEX
  8
16 学校
 10
155.366172
 20
5.010578
  0
VERTEX
  8
16 学校
 10
155.202874
 20
2.894243
  0
VERTEX
  8
16 学校
 10
155.202874
 20
-0.751380
  0
VERTEX
  8
16 学校
 10
156.343552
 20
-0.834407
  0
VERTEX
  8
16 学校
 10
156.497549
 20
0.416170
  0
VERTEX
  8
16 学校
 10
157.047734
 20
0.418582
  0
VERTEX
  8
16 学校
 10
156.944036
 20
-0.961532
  0
VERTEX
  8
16 学校
 10
159.424176
 20
-1.156526
  0
VERTEX
  8
16 学校
 10
163.327321
 20
-1.156526
  0
VERTEX
  8
16 学校
 10
163.455997
 20
0.689023
  0
VERTEX
  8
16 学校
 10
161.914823
 20
0.941895
  0
VERTEX
  8
16 学校
 10
161.991133
 20
1.782159
  0
VERTEX
  8
16 学校
 10
163.511118
 20
1.719113
  0
VERTEX
  8
16 学校
 10
163.712486
 20
3.569830
  0
VERTEX
  8
16 学校
 10
159.801416
 20
3.831659
  0
VERTEX
  8
16 学校
 10
159.800038
 20
4.101757
  0
VERTEX
  8
16 学校
 10
159.199727
 20
4.208555
  0
VERTEX
  8
16 学校
 10
159.337703
 20
6.799283
  0
VERTEX
  8
16 学校
 10
158.936864
 20
6.877487
  0
VERTEX
  8
16 学校
 10
158.836094
 20
7.116923
  0
VERTEX
  8
16 学校
 10
158.166019
 20
7.144140
  0
VERTEX
  8
16 学校
 10
157.986873
 20
6.952936
  0
VERTEX
  8
16 学校
 10
157.566741
 20
6.950868
  0
VERTEX
  8
16 学校
 10
157.331956
 20
3.750010
  0
VERTEX
  8
16 学校
 10
156.752143
 20
3.727272
  0
VERTEX
  8
16 学校
 10
156.836376
 20
4.937542
  0
SEQEND
  0
POLYLINE
  8
16 学校
 40
0.105834
 41
0.105834
 62
1
 66
1
 10
0
 20
0
 30
0
 70
1
  0
VERTEX
  8
16 学校
 10
140.370611
 20
90.009199
  0
VERTEX
  8
16 学校
 10
135.722803
 20
89.607412
  0
VERTEX
  8
16 学校
 10
135.703166
 20
89.527657
  0
VERTEX
  8
16 学校
 10
132.484738
 20
89.252220
  0
VERTEX
  8
16 学校
 10
132.558808
 20
88.362777
  0
VERTEX
  8
16 学校
 10
135.797390
 20
88.597734
  0
VERTEX
  8
16 学校
 10
135.819439
 20
88.198101
  0
VERTEX
  8
16 学校
 10
140.537699
 20
88.550192
  0
SEQEND
  0
POLYLINE
  8
16 学校
 40
0.105834
 41
0.105834
 62
1
 66
1
 10
0
 20
0
 30
0
 70
1
  0
VERTEX
  8
16 学校
 10
142.594262
 20
91.329798
  0
VERTEX
  8
16 学校
 10
141.743834
 20
91.455803
  0
VERTEX
  8
16 学校
 10
141.648405
 20
92.615171
  0
VERTEX
  8
16 学校
 10
142.567734
 20
92.709568
  0
VERTEX
  8
16 学校
 10
142.471099
 20
94.168833
  0
VERTEX
  8
16 学校
 10
141.521108
 20
94.144373
  0
VERTEX
  8
16 学校
 10
141.405524
 20
95.383840
  0
VERTEX
  8
16 学校
 10
142.254573
 20
95.478064
  0
VERTEX
  8
16 学校
 10
142.181192
 20
96.237712
  0
VERTEX
  8
16 学校
 10
142.001185
 20
96.236506
  0
VERTEX
  8
16 学校
 10
141.959843
 20
96.536404
  0
VERTEX
  8
16 学校
 10
138.691633
 20
96.231166
  0
VERTEX
  8
16 学校
 10
138.611189
 20
96.330558
  0
VERTEX
  8
16 学校
 10
136.842122
 20
96.112568
  0
VERTEX
  8
16 学校
 10
136.674861
 20
95.412865
  0
VERTEX
  8
16 学校
 10
136.424918
 20
95.391850
  0
VERTEX
  8
16 学校
 10
136.636621
 20
95.101340
  0
VERTEX
  8
16 学校
 10
136.866582
 20
95.132777
  0
VERTEX
  8
16 学校
 10
136.937552
 20
94.953028
  0
VERTEX
  8
16 学校
 10
138.736936
 20
95.071454
  0
VERTEX
  8
16 学校
 10
138.756401
 20
95.171362
  0
VERTEX
  8
16 学校
 10
140.235907
 20
95.308564
  0
VERTEX
  8
16 学校
 10
140.300330
 20
94.328601
  0
VERTEX
  8
16 学校
 10
139.850743
 20
94.256684
  0
VERTEX
  8
16 学校
 10
139.902419
 20
93.877032
  0
VERTEX
  8
16 学校
 10
139.803889
 20
93.556722
  0
VERTEX
  8
16 学校
 10
139.846953
 20
92.966832
  0
VERTEX
  8
16 学校
 10
139.978212
 20
92.627488
  0
VERTEX
  8
16 学校
 10
140.020242
 20
92.227510
  0
VERTEX
  8
16 学校
 10
140.270186
 20
92.228888
  0
VERTEX
  8
16 学校
 10
140.301019
 20
92.079025
  0
VERTEX
  8
16 学校
 10
140.400928
 20
92.099351
  0
VERTEX
  8
16 学校
 10
140.494635
 20
91.289835
  0
VERTEX
  8
16 学校
 10
140.095001
 20
91.218176
  0
VERTEX
  8
16 学校
 10
140.190431
 20
90.108504
  0
VERTEX
  8
16 学校
 10
142.689519
 20
90.270080
  0
SEQEND
  0
POLYLINE
  8
16 学校
 40
0.105834
 41
0.105834
 62
1
 66
1
 10
0
 20
0
 30
0
 70
1
  0
VERTEX
  8
16 学校
 10
134.991749
 20
104.763258
  0
VERTEX
  8
16 学校
 10
134.983481
 20
100.123718
  0
VERTEX
  8
16 学校
 10
135.248927
 20
98.934808
  0
VERTEX
  8
16 学校
 10
137.947832
 20
99.097418
  0
VERTEX
  8
16 学校
 10
138.277013
 20
101.439064
  0
VERTEX
  8
16 学校
 10
137.206960
 20
101.463869
  0
VERTEX
  8
16 学校
 10
137.178021
 20
101.223744
  0
VERTEX
  8
16 学校
 10
135.828568
 20
101.177580
  0
VERTEX
  8
16 学校
 10
135.911596
 20
104.757745
  0
SEQEND
  0
POLYLINE
  8
16 学校
 40
0.105834
 41
0.105834
 62
1
 66
1
 10
0
 20
0
 30
0
 70
1
  0
VERTEX
  8
16 学校
 10
140.757842
 20
122.388649
  0
VERTEX
  8
16 学校
 10
140.204039
 20
122.258596
  0
VERTEX
  8
16 学校
 10
139.874858
 20
122.156965
  0
VERTEX
  8
16 学校
 10
138.576049
 20
121.920975
  0
VERTEX
  8
16 学校
 10
138.505424
 20
122.040865
  0
VERTEX
  8
16 学校
 10
137.406776
 20
121.805649
  0
VERTEX
  8
16 学校
 10
137.386106
 20
121.925453
  0
VERTEX
  8
16 学校
 10
136.089019
 20
121.667759
  0
VERTEX
  8
16 学校
 10
136.089019
 20
120.949796
  0
VERTEX
  8
16 学校
 10
136.089364
 20
120.947385
  0
VERTEX
  8
16 学校
 10
136.590973
 20
118.532702
  0
VERTEX
  8
16 学校
 10
138.002093
 20
118.532702
  0
VERTEX
  8
16 学校
 10
138.001059
 20
118.688421
  0
VERTEX
  8
16 学校
 10
139.199960
 20
118.984012
  0
VERTEX
  8
16 学校
 10
139.169298
 20
119.053948
  0
VERTEX
  8
16 学校
 10
139.668840
 20
119.176336
  0
VERTEX
  8
16 学校
 10
139.127957
 20
121.573707
  0
VERTEX
  8
16 学校
 10
139.947550
 20
121.547524
  0
VERTEX
  8
16 学校
 10
140.599367
 20
119.120783
  0
VERTEX
  8
16 学校
 10
141.169189
 20
119.123195
  0
VERTEX
  8
16 学校
 10
141.269786
 20
118.993659
  0
VERTEX
  8
16 学校
 10
141.719374
 20
119.066006
  0
VERTEX
  8
16 学校
 10
141.618260
 20
119.265478
  0
VERTEX
  8
16 学校
 10
144.764858
 20
119.939946
  0
VERTEX
  8
16 学校
 10
144.872345
 20
122.730577
  0
VERTEX
  8
16 学校
 10
143.071583
 20
122.842199
  0
VERTEX
  8
16 学校
 10
142.072154
 20
122.697418
  0
VERTEX
  8
16 学校
 10
140.963860
 20
122.437053
  0
VERTEX
  8
16 学校
 10
140.790571
 20
122.333355
  0
SEQEND
  0
POLYLINE
  8
16 学校
 40
0.105834
 41
0.105834
 62
1
 66
1
 10
0
 20
0
 30
0
 70
1
  0
VERTEX
  8
16 学校
 10
149.367534
 20
115.883148
  0
VERTEX
  8
16 学校
 10
149.167545
 20
115.872382
  0
VERTEX
  8
16 学校
 10
149.276411
 20
113.952849
  0
VERTEX
  8
16 学校
 10
149.526354
 20
113.964218
  0
VERTEX
  8
16 学校
 10
149.603180
 20
112.544485
  0
VERTEX
  8
16 学校
 10
149.223184
 20
112.522781
  0
VERTEX
  8
16 学校
 10
149.287952
 20
111.503026
  0
VERTEX
  8
16 学校
 10
152.726868
 20
111.699054
  0
VERTEX
  8
16 学校
 10
152.672780
 20
112.588841
  0
VERTEX
  8
16 学校
 10
154.482155
 20
112.697362
  0
VERTEX
  8
16 学校
 10
154.450116
 20
113.157458
  0
VERTEX
  8
16 学校
 10
154.650277
 20
113.167965
  0
VERTEX
  8
16 学校
 10
154.616687
 20
113.807810
  0
VERTEX
  8
16 学校
 10
151.527967
 20
113.623496
  0
VERTEX
  8
16 学校
 10
151.582745
 20
112.573769
  0
VERTEX
  8
16 学校
 10
150.343192
 20
112.507967
  0
VERTEX
  8
16 学校
 10
150.277562
 20
113.667507
  0
VERTEX
  8
16 学校
 10
150.197808
 20
113.667249
  0
VERTEX
  8
16 学校
 10
150.436899
 20
118.158304
  0
VERTEX
  8
16 学校
 10
149.867076
 20
118.125575
  0
VERTEX
  8
16 学校
 10
149.845200
 20
118.465264
  0
VERTEX
  8
16 学校
 10
153.974001
 20
118.694622
  0
VERTEX
  8
16 学校
 10
153.941616
 20
119.184604
  0
VERTEX
  8
16 学校
 10
154.891435
 20
119.239037
  0
VERTEX
  8
16 学校
 10
154.859223
 20
119.698960
  0
VERTEX
  8
16 学校
 10
156.378692
 20
119.786122
  0
VERTEX
  8
16 学校
 10
156.368012
 20
119.965957
  0
VERTEX
  8
16 学校
 10
156.827936
 20
119.988006
  0
VERTEX
  8
16 学校
 10
156.773503
 20
120.887784
  0
VERTEX
  8
16 学校
 10
156.314269
 20
120.855486
  0
VERTEX
  8
16 学校
 10
156.314441
 20
120.705623
  0
VERTEX
  8
16 学校
 10
154.754836
 20
120.618462
  0
VERTEX
  8
16 学校
 10
154.657167
 20
122.287621
  0
VERTEX
  8
16 学校
 10
154.887129
 20
122.298904
  0
VERTEX
  8
16 学校
 10
154.778263
 20
124.218351
  0
VERTEX
  8
16 学校
 10
155.008225
 20
124.229375
  0
VERTEX
  8
16 学校
 10
155.029584
 20
123.899592
  0
VERTEX
  8
16 学校
 10
158.448519
 20
124.095619
  0
VERTEX
  8
16 学校
 10
158.481075
 20
123.515892
  0
VERTEX
  8
16 学校
 10
158.531029
 20
123.525796
  0
VERTEX
  8
16 学校
 10
158.726884
 20
120.146825
  0
VERTEX
  8
16 学校
 10
159.206789
 20
120.179210
  0
VERTEX
  8
16 学校
 10
159.218158
 20
119.919103
  0
VERTEX
  8
16 学校
 10
159.618136
 20
119.941066
  0
VERTEX
  8
16 学校
 10
159.606767
 20
120.170941
  0
VERTEX
  8
16 学校
 10
160.086672
 20
120.193421
  0
VERTEX
  8
16 学校
 10
160.054288
 20
120.723107
  0
VERTEX
  8
16 学校
 10
160.234123
 20
120.733787
  0
VERTEX
  8
16 学校
 10
160.005367
 20
124.782661
  0
VERTEX
  8
16 学校
 10
165.313604
 20
125.077477
  0
VERTEX
  8
16 学校
 10
165.226615
 20
126.566974
  0
VERTEX
  8
16 学校
 10
158.078858
 20
126.163637
  0
VERTEX
  8
16 学校
 10
158.099528
 20
125.913521
  0
VERTEX
  8
16 学校
 10
152.941499
 20
125.619308
  0
VERTEX
  8
16 学校
 10
153.279465
 20
119.691295
  0
VERTEX
  8
16 学校
 10
149.160827
 20
119.451945
  0
SEQEND
  0
POLYLINE
  8
18 高速分離帯
 40
0.105834
 41
0.105834
 62
5
 66
1
 10
0
 20
0
 30
0
 70
1
  0
VERTEX
  8
18 高速分離帯
 10
82.010670
 20
29.449895
  0
VERTEX
  8
18 高速分離帯
 10
80.451755
 20
29.403386
  0
VERTEX
  8
18 高速分離帯
 10
70.907746
 20
29.780627
  0
VERTEX
  8
18 高速分離帯
 10
68.787277
 20
29.534301
  0
VERTEX
  8
18 高速分離帯
 10
66.947584
 20
29.049228
  0
VERTEX
  8
18 高速分離帯
 10
65.194020
 20
28.463214
  0
VERTEX
  8
18 高速分離帯
 10
63.455269
 20
27.531999
  0
VERTEX
  8
18 高速分離帯
 10
62.147158
 20
26.283833
  0
VERTEX
  8
18 高速分離帯
 10
60.910705
 20
24.545082
  0
VERTEX
  8
18 高速分離帯
 10
60.253033
 20
23.028541
  0
VERTEX
  8
18 高速分離帯
 10
59.839274
 20
21.181959
  0
VERTEX
  8
18 高速分離帯
 10
60.103859
 20
7.423539
  0
VERTEX
  8
18 高速分離帯
 10
59.839274
 20
7.388743
  0
VERTEX
  8
18 高速分離帯
 10
59.398299
 20
18.447914
  0
VERTEX
  8
18 高速分離帯
 10
59.221909
 20
24.268784
  0
VERTEX
  8
18 高速分離帯
 10
58.780934
 20
26.473659
  0
VERTEX
  8
18 高速分離帯
 10
58.075374
 20
29.384094
  0
VERTEX
  8
18 高速分離帯
 10
57.706402
 20
30.258809
  0
VERTEX
  8
18 高速分離帯
 10
70.619390
 20
30.008693
  0
VERTEX
  8
18 高速分離帯
 10
80.454511
 20
29.542569
  0
SEQEND
  0
POLYLINE
  8
18 高速分離帯
 40
0.105834
 41
0.105834
 62
5
 66
1
 10
0
 20
0
 30
0
 70
1
  0
VERTEX
  8
18 高速分離帯
 10
42.994029
 20
33.043842
  0
VERTEX
  8
18 高速分離帯
 10
44.124027
 20
33.043152
  0
VERTEX
  8
18 高速分離帯
 10
42.101399
 20
32.611479
  0
VERTEX
  8
18 高速分離帯
 10
30.676357
 20
32.935320
  0
VERTEX
  8
18 高速分離帯
 10
30.683592
 20
32.968049
  0
SEQEND
  0
POLYLINE
  8
18 高速分離帯
 40
0.105834
 41
0.105834
 62
5
 66
1
 10
0
 20
0
 30
0
 70
1
  0
VERTEX
  8
18 高速分離帯
 10
37.286848
 20
33.578524
  0
VERTEX
  8
18 高速分離帯
 10
43.028480
 20
33.905465
  0
VERTEX
  8
18 高速分離帯
 10
45.668129
 20
33.982291
  0
VERTEX
  8
18 高速分離帯
 10
45.288477
 20
33.674298
  0
VERTEX
  8
18 高速分離帯
 10
43.611394
 20
33.617454
  0
SEQEND
  0
POLYLINE
  8
18 高速分離帯
 40
0.105834
 41
0.105834
 62
5
 66
1
 10
0
 20
0
 30
0
 70
1
  0
VERTEX
  8
18 高速分離帯
 10
42.120003
 20
31.767081
  0
VERTEX
  8
18 高速分離帯
 10
44.255286
 20
32.184629
  0
VERTEX
  8
18 高速分離帯
 10
45.647803
 20
32.695196
  0
VERTEX
  8
18 高速分離帯
 10
46.039513
 20
33.014903
  0
VERTEX
  8
18 高速分離帯
 10
48.594411
 20
32.735504
  0
VERTEX
  8
18 高速分離帯
 10
50.799286
 20
32.029944
  0
VERTEX
  8
18 高速分離帯
 10
52.194903
 20
31.226198
  0
VERTEX
  8
18 高速分離帯
 10
32.763409
 20
31.617218
  0
VERTEX
  8
18 高速分離帯
 10
30.467238
 20
32.015819
  0
VERTEX
  8
18 高速分離帯
 10
30.484464
 20
32.089889
  0
SEQEND
  0
POLYLINE
  8
18 高速分離帯
 40
0.105834
 41
0.105834
 62
5
 66
1
 10
0
 20
0
 30
0
 70
1
  0
VERTEX
  8
18 高速分離帯
 10
51.107969
 20
32.735504
  0
VERTEX
  8
18 高速分離帯
 10
48.814899
 20
33.352869
  0
VERTEX
  8
18 高速分離帯
 10
46.753685
 20
33.612630
  0
VERTEX
  8
18 高速分離帯
 10
47.227389
 20
34.017087
  0
VERTEX
  8
18 高速分離帯
 10
49.174225
 20
33.774551
  0
VERTEX
  8
18 高速分離帯
 10
55.615216
 20
32.570827
  0
VERTEX
  8
18 高速分離帯
 10
56.198130
 20
31.156262
  0
VERTEX
  8
18 高速分離帯
 10
53.569850
 20
31.193469
  0
VERTEX
  8
18 高速分離帯
 10
53.136454
 20
31.588969
  0
SEQEND
  0
POLYLINE
  8
18 高速分離帯
 40
0.105834
 41
0.105834
 62
5
 66
1
 10
0
 20
0
 30
0
 70
1
  0
VERTEX
  8
18 高速分離帯
 10
56.553666
 20
30.289126
  0
VERTEX
  8
18 高速分離帯
 10
56.928839
 20
29.384094
  0
VERTEX
  8
18 高速分離帯
 10
57.634399
 20
26.473659
  0
VERTEX
  8
18 高速分離帯
 10
58.075374
 20
24.268784
  0
VERTEX
  8
18 高速分離帯
 10
58.251764
 20
18.447914
  0
VERTEX
  8
18 高速分離帯
 10
58.946989
 20
0.989093
  0
VERTEX
  8
18 高速分離帯
 10
58.803672
 20
0.927426
  0
VERTEX
  8
18 高速分離帯
 10
57.810789
 20
23.563224
  0
VERTEX
  8
18 高速分離帯
 10
56.928839
 20
26.826439
  0
VERTEX
  8
18 高速分離帯
 10
56.223279
 20
28.325754
  0
VERTEX
  8
18 高速分離帯
 10
54.679866
 20
30.221602
  0
VERTEX
  8
18 高速分離帯
 10
54.569623
 20
30.327711
  0
SEQEND
  0
POLYLINE
  8
18 高速分離帯
 40
0.105834
 41
0.105834
 62
5
 66
1
 10
0
 20
0
 30
0
 70
1
  0
VERTEX
  8
18 高速分離帯
 10
82.111268
 20
30.445190
  0
VERTEX
  8
18 高速分離帯
 10
80.469669
 20
30.397992
  0
VERTEX
  8
18 高速分離帯
 10
70.750305
 20
30.858604
  0
VERTEX
  8
18 高速分離帯
 10
57.343976
 20
31.125945
  0
VERTEX
  8
18 高速分離帯
 10
56.876818
 20
32.300041
  0
VERTEX
  8
18 高速分離帯
 10
59.046897
 20
31.813246
  0
VERTEX
  8
18 高速分離帯
 10
80.473803
 20
30.605043
  0
SEQEND
  0
POLYLINE
  8
18 高速分離帯
 40
0.105834
 41
0.105834
 62
5
 66
1
 10
0
 20
0
 30
0
 70
1
  0
VERTEX
  8
18 高速分離帯
 10
54.136227
 20
38.085771
  0
VERTEX
  8
18 高速分離帯
 10
55.550103
 20
36.326694
  0
VERTEX
  8
18 高速分離帯
 10
57.252335
 20
34.910751
  0
VERTEX
  8
18 高速分離帯
 10
58.938031
 20
34.047404
  0
VERTEX
  8
18 高速分離帯
 10
61.410592
 20
33.309460
  0
VERTEX
  8
18 高速分離帯
 10
63.308507
 20
32.911894
  0
VERTEX
  8
18 高速分離帯
 10
80.445898
 20
31.742965
  0
VERTEX
  8
18 高速分離帯
 10
81.920408
 20
31.453231
  0
VERTEX
  8
18 高速分離帯
 10
80.489995
 20
31.519377
  0
VERTEX
  8
18 高速分離帯
 10
59.046897
 20
32.728613
  0
VERTEX
  8
18 高速分離帯
 10
56.425852
 20
33.315317
  0
VERTEX
  8
18 高速分離帯
 10
54.635769
 20
36.880669
  0
VERTEX
  8
18 高速分離帯
 10
54.123480
 20
38.104374
  0
SEQEND
  0
POLYLINE
  8
18 高速分離帯
 40
0.105834
 41
0.105834
 62
5
 66
1
 10
0
 20
0
 30
0
 70
1
  0
VERTEX
  8
18 高速分離帯
 10
50.707991
 20
54.002556
  0
VERTEX
  8
18 高速分離帯
 10
50.795841
 20
54.008758
  0
VERTEX
  8
18 高速分離帯
 10
50.822713
 20
48.564439
  0
VERTEX
  8
18 高速分離帯
 10
51.019774
 20
45.435584
  0
VERTEX
  8
18 高速分離帯
 10
51.328456
 20
43.230709
  0
VERTEX
  8
18 高速分離帯
 10
51.901724
 20
40.673054
  0
VERTEX
  8
18 高速分離帯
 10
53.489234
 20
36.880669
  0
VERTEX
  8
18 高速分離帯
 10
55.133933
 20
33.571978
  0
VERTEX
  8
18 高速分離帯
 10
49.174225
 20
34.689918
  0
VERTEX
  8
18 高速分離帯
 10
47.953964
 20
34.845982
  0
VERTEX
  8
18 高速分離帯
 10
48.665381
 20
35.712774
  0
VERTEX
  8
18 高速分離帯
 10
49.686514
 20
38.033749
  0
VERTEX
  8
18 高速分離帯
 10
50.150915
 20
39.937176
  0
VERTEX
  8
18 高速分離帯
 10
50.290098
 20
41.654912
  0
SEQEND
  0
POLYLINE
  8
18 高速分離帯
 40
0.105834
 41
0.105834
 62
5
 66
1
 10
0
 20
0
 30
0
  0
VERTEX
  8
18 高速分離帯
 10
48.962005
 20
61.722031
  0
VERTEX
  8
18 高速分離帯
 10
48.800429
 20
85.990556
  0
VERTEX
  8
18 高速分離帯
 10
49.454313
 20
90.988387
  0
VERTEX
  8
18 高速分離帯
 10
49.117725
 20
131.571006
  0
SEQEND
  0
POLYLINE
  8
18 高速分離帯
 40
0.105834
 41
0.105834
 62
5
 66
1
 10
0
 20
0
 30
0
  0
VERTEX
  8
18 高速分離帯
 10
49.570413
 20
61.724098
  0
VERTEX
  8
18 高速分離帯
 10
49.579370
 20
85.946458
  0
VERTEX
  8
18 高速分離帯
 10
49.961434
 20
86.005197
  0
VERTEX
  8
18 高速分離帯
 10
50.293199
 20
62.079634
  0
VERTEX
  8
18 高速分離帯
 10
49.268965
 20
41.376202
  0
VERTEX
  8
18 高速分離帯
 10
49.129438
 20
39.937176
  0
VERTEX
  8
18 高速分離帯
 10
48.665381
 20
38.033749
  0
VERTEX
  8
18 高速分離帯
 10
47.644248
 20
36.176831
  0
VERTEX
  8
18 高速分離帯
 10
46.713377
 20
34.937967
  0
VERTEX
  8
18 高速分離帯
 10
43.028480
 20
34.820833
  0
VERTEX
  8
18 高速分離帯
 10
29.119164
 20
33.998828
  0
VERTEX
  8
18 高速分離帯
 10
19.710032
 20
34.153858
  0
SEQEND
  0
POLYLINE
  8
18 高速分離帯
 40
0.105834
 41
0.105834
 62
5
 66
1
 10
0
 20
0
 30
0
  0
VERTEX
  8
18 高速分離帯
 10
58.883254
 20
-18.254987
  0
VERTEX
  8
18 高速分離帯
 10
58.780934
 20
-5.893906
  0
VERTEX
  8
18 高速分離帯
 10
58.178383
 20
-1.896192
  0
VERTEX
  8
18 高速分離帯
 10
56.928839
 20
23.695172
  0
VERTEX
  8
18 高速分離帯
 10
56.179181
 20
26.385464
  0
VERTEX
  8
18 高速分離帯
 10
55.473621
 20
27.884779
  0
VERTEX
  8
18 高速分離帯
 10
54.062501
 20
29.648679
  0
VERTEX
  8
18 高速分離帯
 10
53.352463
 20
30.343903
  0
VERTEX
  8
18 高速分離帯
 10
32.632495
 20
30.767308
  0
VERTEX
  8
18 高速分離帯
 10
28.959311
 20
31.404999
  0
VERTEX
  8
18 高速分離帯
 10
19.710032
 20
31.566920
  0
SEQEND
  0
POLYLINE
  8
18 高速分離帯
 40
0.105834
 41
0.105834
 62
5
 66
1
 10
0
 20
0
 30
0
  0
VERTEX
  8
18 高速分離帯
 10
46.713377
 20
34.937967
  0
VERTEX
  8
18 高速分離帯
 10
47.953964
 20
34.845982
  0
SEQEND
  0
POLYLINE
  8
18 高速分離帯
 40
0.105834
 41
0.105834
 62
5
 66
1
 10
0
 20
0
 30
0
  0
VERTEX
  8
18 高速分離帯
 10
45.668129
 20
33.982291
  0
VERTEX
  8
18 高速分離帯
 10
47.227389
 20
34.017087
  0
SEQEND
  0
POLYLINE
  8
18 高速分離帯
 40
0.105834
 41
0.105834
 62
5
 66
1
 10
0
 20
0
 30
0
  0
VERTEX
  8
18 高速分離帯
 10
45.288477
 20
33.674298
  0
VERTEX
  8
18 高速分離帯
 10
46.753685
 20
33.612630
  0
SEQEND
  0
POLYLINE
  8
18 高速分離帯
 40
0.105834
 41
0.105834
 62
5
 66
1
 10
0
 20
0
 30
0
  0
VERTEX
  8
18 高速分離帯
 10
44.124027
 20
33.043152
  0
VERTEX
  8
18 高速分離帯
 10
46.039513
 20
33.014903
  0
SEQEND
  0
POLYLINE
  8
18 高速分離帯
 40
0.105834
 41
0.105834
 62
5
 66
1
 10
0
 20
0
 30
0
  0
VERTEX
  8
18 高速分離帯
 10
52.194903
 20
31.226198
  0
VERTEX
  8
18 高速分離帯
 10
53.569850
 20
31.193469
  0
SEQEND
  0
POLYLINE
  8
18 高速分離帯
 40
0.105834
 41
0.105834
 62
5
 66
1
 10
0
 20
0
 30
0
  0
VERTEX
  8
18 高速分離帯
 10
53.352463
 20
30.343903
  0
VERTEX
  8
18 高速分離帯
 10
54.569623
 20
30.327711
  0
SEQEND
  0
POLYLINE
  8
18 高速分離帯
 40
0.105834
 41
0.105834
 62
5
 66
1
 10
0
 20
0
 30
0
  0
VERTEX
  8
18 高速分離帯
 10
55.133933
 20
33.571978
  0
VERTEX
  8
18 高速分離帯
 10
56.425852
 20
33.315317
  0
SEQEND
  0
POLYLINE
  8
18 高速分離帯
 40
0.105834
 41
0.105834
 62
5
 66
1
 10
0
 20
0
 30
0
  0
VERTEX
  8
18 高速分離帯
 10
55.615216
 20
32.570827
  0
VERTEX
  8
18 高速分離帯
 10
56.876818
 20
32.300041
  0
SEQEND
  0
POLYLINE
  8
18 高速分離帯
 40
0.105834
 41
0.105834
 62
5
 66
1
 10
0
 20
0
 30
0
  0
VERTEX
  8
18 高速分離帯
 10
56.198130
 20
31.156262
  0
VERTEX
  8
18 高速分離帯
 10
57.343976
 20
31.125945
  0
SEQEND
  0
POLYLINE
  8
18 高速分離帯
 40
0.105834
 41
0.105834
 62
5
 66
1
 10
0
 20
0
 30
0
  0
VERTEX
  8
18 高速分離帯
 10
56.553666
 20
30.289126
  0
VERTEX
  8
18 高速分離帯
 10
57.706402
 20
30.258809
  0
SEQEND
  0
POLYLINE
  8
18 高速分離帯
 40
0.105834
 41
0.105834
 62
5
 66
1
 10
0
 20
0
 30
0
  0
VERTEX
  8
18 高速分離帯
 10
51.143109
 20
115.118677
  0
VERTEX
  8
18 高速分離帯
 10
51.578572
 20
90.297297
  0
VERTEX
  8
18 高速分離帯
 10
51.355673
 20
88.252447
  0
VERTEX
  8
18 高速分離帯
 10
51.033899
 20
91.532027
  0
VERTEX
  8
18 高速分離帯
 10
50.796875
 20
131.571006
  0
SEQEND
  0
POLYLINE
  8
18 高速分離帯
 40
0.105834
 41
0.105834
 62
5
 66
1
 10
0
 20
0
 30
0
  0
VERTEX
  8
18 高速分離帯
 10
143.069860
 20
28.186226
  0
VERTEX
  8
18 高速分離帯
 10
115.534416
 20
30.397992
  0
VERTEX
  8
18 高速分離帯
 10
108.216299
 20
30.352860
  0
VERTEX
  8
18 高速分離帯
 10
98.239239
 20
30.839656
  0
VERTEX
  8
18 高速分離帯
 10
87.532504
 20
32.412007
  0
VERTEX
  8
18 高速分離帯
 10
63.543464
 20
34.028801
  0
VERTEX
  8
18 高速分離帯
 10
61.660018
 20
34.366767
  0
VERTEX
  8
18 高速分離帯
 10
59.398299
 20
35.072327
  0
VERTEX
  8
18 高速分離帯
 10
57.898984
 20
35.851612
  0
VERTEX
  8
18 高速分離帯
 10
56.342825
 20
37.141464
  0
VERTEX
  8
18 高速分離帯
 10
55.164939
 20
38.703136
  0
VERTEX
  8
18 高速分離帯
 10
53.959148
 20
40.401923
  0
VERTEX
  8
18 高速分離帯
 10
53.065485
 20
42.886197
  0
VERTEX
  8
18 高速分離帯
 10
52.607284
 20
44.773777
  0
VERTEX
  8
18 高速分離帯
 10
52.308248
 20
46.621737
  0
VERTEX
  8
18 高速分離帯
 10
52.121867
 20
48.253345
  0
VERTEX
  8
18 高速分離帯
 10
51.901724
 20
62.104439
  0
VERTEX
  8
18 高速分離帯
 10
51.584084
 20
83.186747
  0
VERTEX
  8
18 高速分離帯
 10
52.342699
 20
90.150362
  0
VERTEX
  8
18 高速分離帯
 10
52.020581
 20
114.983628
  0
SEQEND
  0
POLYLINE
  8
18 高速分離帯
 40
0.105834
 41
0.105834
 62
5
 66
1
 10
0
 20
0
 30
0
  0
VERTEX
  8
18 高速分離帯
 10
115.558532
 20
29.548770
  0
VERTEX
  8
18 高速分離帯
 10
151.121099
 20
27.531999
  0
VERTEX
  8
18 高速分離帯
 10
169.718014
 20
28.132827
  0
SEQEND
  0
POLYLINE
  8
18 高速分離帯
 40
0.105834
 41
0.105834
 62
5
 66
1
 10
0
 20
0
 30
0
  0
VERTEX
  8
18 高速分離帯
 10
115.438642
 20
27.842059
  0
VERTEX
  8
18 高速分離帯
 10
151.209294
 20
25.768099
  0
VERTEX
  8
18 高速分離帯
 10
169.718014
 20
26.453677
  0
SEQEND
  0
POLYLINE
  8
18 高速分離帯
 40
0.105834
 41
0.105834
 62
5
 66
1
 10
0
 20
0
 30
0
  0
VERTEX
  8
18 高速分離帯
 10
143.123604
 20
26.020281
  0
VERTEX
  8
18 高速分離帯
 10
115.402124
 20
26.973201
  0
VERTEX
  8
18 高速分離帯
 10
108.390277
 20
27.921641
  0
VERTEX
  8
18 高速分離帯
 10
97.727984
 20
28.474238
  0
VERTEX
  8
18 高速分離帯
 10
80.432806
 20
28.347458
  0
VERTEX
  8
18 高速分離帯
 10
71.172331
 20
28.722287
  0
VERTEX
  8
18 高速分離帯
 10
69.056685
 20
28.498009
  0
VERTEX
  8
18 高速分離帯
 10
67.241453
 20
28.041876
  0
VERTEX
  8
18 高速分離帯
 10
65.742827
 20
27.545434
  0
VERTEX
  8
18 高速分離帯
 10
64.337219
 20
26.738244
  0
VERTEX
  8
18 高速分離帯
 10
62.938501
 20
25.448736
  0
VERTEX
  8
18 高速分離帯
 10
61.911856
 20
24.004199
  0
VERTEX
  8
18 高速分離帯
 10
61.241092
 20
22.565862
  0
VERTEX
  8
18 高速分離帯
 10
60.897614
 20
20.784737
  0
VERTEX
  8
18 高速分離帯
 10
61.265208
 20
7.151374
  0
VERTEX
  8
18 高速分離帯
 10
60.293340
 20
-4.629204
  0
VERTEX
  8
18 高速分離帯
 10
60.397727
 20
-18.254987
  0
SEQEND
  0
POLYLINE
  8
18 高速分離帯
 40
0.105834
 41
0.105834
 62
5
 66
1
 10
0
 20
0
 30
0
  0
VERTEX
  8
18 高速分離帯
 10
61.043687
 20
-18.254987
  0
VERTEX
  8
18 高速分離帯
 10
61.177013
 20
2.012982
  0
SEQEND
  0
POLYLINE
  8
18 高速分離帯
 40
0.105834
 41
0.105834
 62
5
 66
1
 10
0
 20
0
 30
0
  0
VERTEX
  8
18 高速分離帯
 10
61.692575
 20
-18.254987
  0
VERTEX
  8
18 高速分離帯
 10
61.825729
 20
2.012982
  0
SEQEND
  0
POLYLINE
  8
18 高速分離帯
 40
0.105834
 41
0.105834
 62
5
 66
1
 10
0
 20
0
 30
0
  0
VERTEX
  8
18 高速分離帯
 10
82.111268
 20
30.445190
  0
VERTEX
  8
18 高速分離帯
 10
98.292294
 20
29.619051
  0
VERTEX
  8
18 高速分離帯
 10
115.578514
 20
28.678534
  0
VERTEX
  8
18 高速分離帯
 10
151.150727
 20
26.561854
  0
VERTEX
  8
18 高速分離帯
 10
169.718014
 20
27.218148
  0
SEQEND
  0
POLYLINE
  8
19 鉄道駅
 40
0.105834
 41
0.105834
 62
6
 66
1
 10
0
 20
0
 30
0
 70
1
  0
VERTEX
  8
19 鉄道駅
 10
116.385360
 20
126.819070
  0
VERTEX
  8
19 鉄道駅
 10
106.800011
 20
126.968416
  0
VERTEX
  8
19 鉄道駅
 10
106.770038
 20
125.803622
  0
VERTEX
  8
19 鉄道駅
 10
116.355732
 20
125.654276
  0
SEQEND
  0
POLYLINE
  8
20 鉄道
 40
0.352780
 41
0.352780
 66
1
 10
0
 20
0
 30
0
  0
VERTEX
  8
20 鉄道
 10
125.103574
 20
127.045156
  0
VERTEX
  8
20 鉄道
 10
133.805595
 20
129.573441
  0
VERTEX
  8
20 鉄道
 10
138.891966
 20
131.571006
  0
SEQEND
  0
POLYLINE
  8
21 デッキ・歩道橋
 40
0.035278
 41
0.035278
 62
37
 66
1
 10
0
 20
0
 30
0
 70
1
  0
VERTEX
  8
21 デッキ・歩道橋
 10
119.934865
 20
-1.665714
  0
VERTEX
  8
21 デッキ・歩道橋
 10
116.387083
 20
-1.494492
  0
VERTEX
  8
21 デッキ・歩道橋
 10
116.339540
 20
-3.252880
  0
VERTEX
  8
21 デッキ・歩道橋
 10
116.692320
 20
-3.262526
  0
VERTEX
  8
21 デッキ・歩道橋
 10
116.729700
 20
-1.864153
  0
VERTEX
  8
21 デッキ・歩道橋
 10
120.263873
 20
-2.034686
  0
VERTEX
  8
21 デッキ・歩道橋
 10
120.317962
 20
-1.221983
  0
VERTEX
  8
21 デッキ・歩道橋
 10
119.965871
 20
-1.198212
  0
SEQEND
  0
POLYLINE
  8
21 デッキ・歩道橋
 40
0.035278
 41
0.035278
 62
37
 66
1
 10
0
 20
0
 30
0
 70
1
  0
VERTEX
  8
21 デッキ・歩道橋
 10
148.745002
 20
107.920277
  0
VERTEX
  8
21 デッキ・歩道橋
 10
148.564822
 20
108.223275
  0
VERTEX
  8
21 デッキ・歩道橋
 10
147.485811
 20
107.580416
  0
VERTEX
  8
21 デッキ・歩道橋
 10
146.990748
 20
107.996242
  0
VERTEX
  8
21 デッキ・歩道橋
 10
147.139922
 20
108.443160
  0
VERTEX
  8
21 デッキ・歩道橋
 10
146.805056
 20
108.554781
  0
VERTEX
  8
21 デッキ・歩道橋
 10
146.618331
 20
107.994175
  0
VERTEX
  8
21 デッキ・歩道橋
 10
146.580435
 20
107.880313
  0
VERTEX
  8
21 デッキ・歩道橋
 10
147.088245
 20
107.453894
  0
VERTEX
  8
21 デッキ・歩道橋
 10
144.533690
 20
107.895041
  0
VERTEX
  8
21 デッキ・歩道橋
 10
144.632910
 20
108.456423
  0
VERTEX
  8
21 デッキ・歩道橋
 10
145.261299
 20
108.351692
  0
VERTEX
  8
21 デッキ・歩道橋
 10
145.319177
 20
108.699735
  0
VERTEX
  8
21 デッキ・歩道橋
 10
144.345932
 20
108.861913
  0
VERTEX
  8
21 デッキ・歩道橋
 10
144.315442
 20
108.689830
  0
VERTEX
  8
21 デッキ・歩道橋
 10
144.124755
 20
107.607805
  0
VERTEX
  8
21 デッキ・歩道橋
 10
147.300464
 20
107.059084
  0
VERTEX
  8
21 デッキ・歩道橋
 10
147.383836
 20
107.108866
  0
VERTEX
  8
21 デッキ・歩道橋
 10
148.165188
 20
105.434280
  0
VERTEX
  8
21 デッキ・歩道橋
 10
147.565394
 20
105.011995
  0
VERTEX
  8
21 デッキ・歩道橋
 10
147.768311
 20
104.723466
  0
VERTEX
  8
21 デッキ・歩道橋
 10
148.609953
 20
105.315768
  0
VERTEX
  8
21 デッキ・歩道橋
 10
147.688384
 20
107.290423
  0
SEQEND
  0
POLYLINE
  8
21 デッキ・歩道橋
 40
0.035278
 41
0.035278
 62
37
 66
1
 10
0
 20
0
 30
0
 70
1
  0
VERTEX
  8
21 デッキ・歩道橋
 10
153.886495
 20
29.864343
  0
VERTEX
  8
21 デッキ・歩道橋
 10
153.781418
 20
30.201275
 42
-0.000221
  0
VERTEX
  8
21 デッキ・歩道橋
 10
152.625065
 20
29.840227
  0
VERTEX
  8
21 デッキ・歩道橋
 10
147.983975
 20
30.134785
  0
VERTEX
  8
21 デッキ・歩道橋
 10
147.961582
 20
29.783038
  0
VERTEX
  8
21 デッキ・歩道橋
 10
152.239901
 20
29.511218
  0
VERTEX
  8
21 デッキ・歩道橋
 10
151.959640
 20
23.763040
  0
VERTEX
  8
21 デッキ・歩道橋
 10
149.836415
 20
23.866049
  0
VERTEX
  8
21 デッキ・歩道橋
 10
149.818845
 20
23.513269
  0
VERTEX
  8
21 デッキ・歩道橋
 10
152.294850
 20
23.393724
  0
VERTEX
  8
21 デッキ・歩道橋
 10
152.592164
 20
29.488825
  0
VERTEX
  8
21 デッキ・歩道橋
 10
152.667957
 20
29.484002
  0
SEQEND
  0
POLYLINE
  8
21 デッキ・歩道橋
 40
0.035278
 41
0.035278
 62
37
 66
1
 10
0
 20
0
 30
0
 70
1
  0
VERTEX
  8
21 デッキ・歩道橋
 10
71.791075
 20
28.658552
  0
VERTEX
  8
21 デッキ・歩道橋
 10
71.612273
 20
28.962411
  0
VERTEX
  8
21 デッキ・歩道橋
 10
70.473317
 20
28.292680
  0
VERTEX
  8
21 デッキ・歩道橋
 10
71.044518
 20
30.614345
  0
VERTEX
  8
21 デッキ・歩道橋
 10
70.249212
 20
34.632385
  0
VERTEX
  8
21 デッキ・歩道橋
 10
71.449663
 20
34.413620
  0
VERTEX
  8
21 デッキ・歩道橋
 10
71.512709
 20
34.760888
  0
VERTEX
  8
21 デッキ・歩道橋
 10
70.161879
 20
35.006525
  0
VERTEX
  8
21 デッキ・歩道橋
 10
69.797385
 20
36.183032
  0
VERTEX
  8
21 デッキ・歩道橋
 10
69.460453
 20
36.078645
  0
VERTEX
  8
21 デッキ・歩道橋
 10
69.761384
 20
35.108845
  0
VERTEX
  8
21 デッキ・歩道橋
 10
67.733415
 20
35.678667
  0
VERTEX
  8
21 デッキ・歩道橋
 10
67.906705
 20
36.673961
  0
VERTEX
  8
21 デッキ・歩道橋
 10
67.559093
 20
36.734251
  0
VERTEX
  8
21 デッキ・歩道橋
 10
67.382703
 20
35.720009
  0
VERTEX
  8
21 デッキ・歩道橋
 10
67.379602
 20
35.704850
  0
VERTEX
  8
21 デッキ・歩道橋
 10
65.967793
 20
35.331399
  0
VERTEX
  8
21 デッキ・歩道橋
 10
66.058055
 20
34.990333
  0
VERTEX
  8
21 デッキ・歩道橋
 10
67.306910
 20
35.320375
  0
VERTEX
  8
21 デッキ・歩道橋
 10
66.579301
 20
31.479414
  0
VERTEX
  8
21 デッキ・歩道橋
 10
67.859335
 20
28.570357
  0
VERTEX
  8
21 デッキ・歩道橋
 10
66.794277
 20
28.763628
  0
VERTEX
  8
21 デッキ・歩道橋
 10
66.731231
 20
28.416360
  0
VERTEX
  8
21 デッキ・歩道橋
 10
68.031074
 20
28.180025
  0
VERTEX
  8
21 デッキ・歩道橋
 10
68.042959
 20
28.152464
  0
VERTEX
  8
21 デッキ・歩道橋
 10
68.085679
 20
27.215048
  0
VERTEX
  8
21 デッキ・歩道橋
 10
68.438286
 20
27.230895
  0
VERTEX
  8
21 デッキ・歩道橋
 10
68.398323
 20
28.109400
  0
VERTEX
  8
21 デッキ・歩道橋
 10
70.037165
 20
27.781770
  0
VERTEX
  8
21 デッキ・歩道橋
 10
70.158778
 20
26.282799
  0
VERTEX
  8
21 デッキ・歩道橋
 10
70.510524
 20
26.311393
 42
0.000133
  0
VERTEX
  8
21 デッキ・歩道橋
 10
70.386845
 20
27.832757
  0
SEQEND
  0
POLYLINE
  8
21 デッキ・歩道橋
 40
0.035278
 41
0.035278
 62
37
 66
1
 10
0
 20
0
 30
0
 70
1
  0
VERTEX
  8
21 デッキ・歩道橋
 10
67.667958
 20
35.330366
  0
VERTEX
  8
21 デッキ・歩道橋
 10
69.874384
 20
34.710934
  0
VERTEX
  8
21 デッキ・歩道橋
 10
70.682953
 20
30.622613
  0
VERTEX
  8
21 デッキ・歩道橋
 10
70.071272
 20
28.134550
  0
VERTEX
  8
21 デッキ・歩道橋
 10
68.278778
 20
28.493531
  0
VERTEX
  8
21 デッキ・歩道橋
 10
66.946206
 20
31.521444
  0
SEQEND
  0
POLYLINE
  8
23 園路・他敷地道
  6
AIGENLINE001
 40
0.105834
 41
0.105834
 66
1
 10
0
 20
0
 30
0
 70
128
  0
VERTEX
  8
23 園路・他敷地道
 10
169.718014
 20
14.561477
  0
VERTEX
  8
23 園路・他敷地道
 10
168.532377
 20
14.539773
  0
VERTEX
  8
23 園路・他敷地道
 10
168.173568
 20
22.105594
  0
VERTEX
  8
23 園路・他敷地道
 10
167.641469
 20
22.080790
  0
VERTEX
  8
23 園路・他敷地道
 10
167.999417
 20
14.530126
  0
VERTEX
  8
23 園路・他敷地道
 10
165.052119
 20
14.476038
  0
VERTEX
  8
23 園路・他敷地道
 10
165.172009
 20
-1.780092
  0
VERTEX
  8
23 園路・他敷地道
 10
165.704625
 20
-1.775958
  0
VERTEX
  8
23 園路・他敷地道
 10
165.588869
 20
13.953069
  0
VERTEX
  8
23 園路・他敷地道
 10
169.718014
 20
14.028862
  0
SEQEND
  0
POLYLINE
  8
23 園路・他敷地道
  6
AIGENLINE001
 40
0.105834
 41
0.105834
 66
1
 10
0
 20
0
 30
0
 70
128
  0
VERTEX
  8
23 園路・他敷地道
 10
169.718014
 20
3.341764
  0
VERTEX
  8
23 園路・他敷地道
 10
166.941077
 20
3.073045
  0
VERTEX
  8
23 園路・他敷地道
 10
166.992409
 20
2.542841
  0
VERTEX
  8
23 園路・他敷地道
 10
169.718014
 20
2.806737
  0
SEQEND
  0
POLYLINE
  8
23 園路・他敷地道
  6
AIGENLINE001
 40
0.105834
 41
0.105834
 66
1
 10
0
 20
0
 30
0
 70
128
  0
VERTEX
  8
23 園路・他敷地道
 10
169.718014
 20
96.009645
  0
VERTEX
  8
23 園路・他敷地道
 10
159.979012
 20
100.103823
  0
VERTEX
  8
23 園路・他敷地道
 10
162.564400
 20
91.878261
  0
VERTEX
  8
23 園路・他敷地道
 10
169.223295
 20
93.142619
  0
VERTEX
  8
23 園路・他敷地道
 10
169.233458
 20
93.090770
  0
VERTEX
  8
23 園路・他敷地道
 10
169.718014
 20
93.469647
  0
SEQEND
  0
POLYLINE
  8
23 園路・他敷地道
  6
AIGENLINE001
 40
0.105834
 41
0.105834
 66
1
 10
0
 20
0
 30
0
 70
128
  0
VERTEX
  8
23 園路・他敷地道
 10
169.718014
 20
104.539928
  0
VERTEX
  8
23 園路・他敷地道
 10
165.956118
 20
103.659442
  0
VERTEX
  8
23 園路・他敷地道
 10
162.920970
 20
102.445383
  0
VERTEX
  8
23 園路・他敷地道
 10
159.995721
 20
100.674937
  0
VERTEX
  8
23 園路・他敷地道
 10
169.718014
 20
96.587564
  0
SEQEND
  0
POLYLINE
  8
23 園路・他敷地道
  6
AIGENLINE001
 40
0.105834
 41
0.105834
 66
1
 10
0
 20
0
 30
0
 70
128
  0
VERTEX
  8
23 園路・他敷地道
 10
156.920954
 20
59.200205
  0
VERTEX
  8
23 園路・他敷地道
 10
158.965975
 20
51.236472
  0
VERTEX
  8
23 園路・他敷地道
 10
159.010245
 20
51.217179
  0
VERTEX
  8
23 園路・他敷地道
 10
158.158440
 20
50.393452
  0
SEQEND
  0
POLYLINE
  8
23 園路・他敷地道
  6
AIGENLINE001
 40
0.105834
 41
0.105834
 66
1
 10
0
 20
0
 30
0
 70
128
  0
VERTEX
  8
23 園路・他敷地道
 10
158.845568
 20
61.790933
  0
VERTEX
  8
23 園路・他敷地道
 10
160.955014
 20
65.170248
  0
VERTEX
  8
23 園路・他敷地道
 10
161.887435
 20
56.711797
  0
VERTEX
  8
23 園路・他敷地道
 10
164.434754
 20
56.306306
  0
VERTEX
  8
23 園路・他敷地道
 10
164.354828
 20
50.281141
  0
VERTEX
  8
23 園路・他敷地道
 10
162.471899
 20
50.484058
  0
VERTEX
  8
23 園路・他敷地道
 10
159.563359
 20
51.746349
  0
VERTEX
  8
23 園路・他敷地道
 10
157.475273
 20
59.878893
  0
SEQEND
  0
POLYLINE
  8
23 園路・他敷地道
  6
AIGENLINE001
 40
0.105834
 41
0.105834
 66
1
 10
0
 20
0
 30
0
 70
128
  0
VERTEX
  8
23 園路・他敷地道
 10
157.912114
 20
67.633507
  0
VERTEX
  8
23 園路・他敷地道
 10
159.823809
 20
67.813945
  0
VERTEX
  8
23 園路・他敷地道
 10
160.393460
 20
65.687705
  0
VERTEX
  8
23 園路・他敷地道
 10
158.963564
 20
63.184827
  0
SEQEND
  0
POLYLINE
  8
23 園路・他敷地道
  6
AIGENLINE001
 40
0.105834
 41
0.105834
 66
1
 10
0
 20
0
 30
0
 70
128
  0
VERTEX
  8
23 園路・他敷地道
 10
156.560250
 20
72.585088
  0
VERTEX
  8
23 園路・他敷地道
 10
158.892767
 20
71.287657
  0
VERTEX
  8
23 園路・他敷地道
 10
159.638462
 20
68.505036
  0
VERTEX
  8
23 園路・他敷地道
 10
157.700928
 20
68.322444
  0
SEQEND
  0
POLYLINE
  8
23 園路・他敷地道
  6
AIGENLINE001
 40
0.105834
 41
0.105834
 66
1
 10
0
 20
0
 30
0
 70
128
  0
VERTEX
  8
23 園路・他敷地道
 10
154.167616
 20
74.792461
  0
VERTEX
  8
23 園路・他敷地道
 10
158.258348
 20
75.967935
  0
VERTEX
  8
23 園路・他敷地道
 10
159.357685
 20
71.837067
  0
VERTEX
  8
23 園路・他敷地道
 10
155.409925
 20
73.764610
  0
SEQEND
  0
POLYLINE
  8
23 園路・他敷地道
  6
AIGENLINE001
 40
0.105834
 41
0.105834
 66
1
 10
0
 20
0
 30
0
 70
128
  0
VERTEX
  8
23 園路・他敷地道
 10
153.414169
 20
77.715384
  0
VERTEX
  8
23 園路・他敷地道
 10
157.486987
 20
78.865450
  0
VERTEX
  8
23 園路・他敷地道
 10
158.076791
 20
76.649809
  0
VERTEX
  8
23 園路・他敷地道
 10
153.996222
 20
75.477350
  0
SEQEND
  0
POLYLINE
  8
23 園路・他敷地道
  6
AIGENLINE001
 40
0.105834
 41
0.105834
 66
1
 10
0
 20
0
 30
0
 70
128
  0
VERTEX
  8
23 園路・他敷地道
 10
169.718014
 20
68.625959
 42
0.001836
  0
VERTEX
  8
23 園路・他敷地道
 10
163.014053
 20
68.107351
 42
0.005138
  0
VERTEX
  8
23 園路・他敷地道
 10
161.064052
 20
67.934696
  0
VERTEX
  8
23 園路・他敷地道
 10
161.523286
 20
66.075625
  0
VERTEX
  8
23 園路・他敷地道
 10
162.521681
 20
57.325200
  0
VERTEX
  8
23 園路・他敷地道
 10
165.148238
 20
56.907135
  0
VERTEX
  8
23 園路・他敷地道
 10
165.059699
 20
50.205176
  0
VERTEX
  8
23 園路・他敷地道
 10
169.718014
 20
49.703050
  0
SEQEND
  0
POLYLINE
  8
23 園路・他敷地道
  6
AIGENLINE001
 40
0.105834
 41
0.105834
 66
1
 10
0
 20
0
 30
0
 70
128
  0
VERTEX
  8
23 園路・他敷地道
 10
169.718014
 20
105.264522
  0
VERTEX
  8
23 園路・他敷地道
 10
165.743554
 20
104.334340
  0
VERTEX
  8
23 園路・他敷地道
 10
162.605053
 20
103.078940
  0
VERTEX
  8
23 園路・他敷地道
 10
158.991814
 20
100.892066
  0
VERTEX
  8
23 園路・他敷地道
 10
162.079328
 20
91.068055
  0
VERTEX
  8
23 園路・他敷地道
 10
169.069815
 20
92.395373
  0
VERTEX
  8
23 園路・他敷地道
 10
169.718014
 20
87.054752
  0
SEQEND
  0
POLYLINE
  8
23 園路・他敷地道
  6
AIGENLINE001
 40
0.105834
 41
0.105834
 66
1
 10
0
 20
0
 30
0
 70
128
  0
VERTEX
  8
23 園路・他敷地道
 10
153.253971
 20
78.403374
  0
VERTEX
  8
23 園路・他敷地道
 10
157.639950
 20
79.641894
  0
VERTEX
  8
23 園路・他敷地道
 10
157.984289
 20
79.739132
  0
VERTEX
  8
23 園路・他敷地道
 10
160.213452
 20
71.365861
  0
VERTEX
  8
23 園路・他敷地道
 10
160.216208
 20
71.364138
  0
VERTEX
  8
23 園路・他敷地道
 10
160.893174
 20
68.626218
  0
VERTEX
  8
23 園路・他敷地道
 10
169.718014
 20
69.339357
  0
SEQEND
  0
POLYLINE
  8
23 園路・他敷地道
  6
AIGENLINE001
 40
0.105834
 41
0.105834
 66
1
 10
0
 20
0
 30
0
 70
128
  0
VERTEX
  8
23 園路・他敷地道
 10
169.718014
 20
92.793456
  0
VERTEX
  8
23 園路・他敷地道
 10
169.571596
 20
92.678992
  0
VERTEX
  8
23 園路・他敷地道
 10
169.718014
 20
91.473546
  0
SEQEND
  0
POLYLINE
  8
23 園路・他敷地道
  6
AIGENLINE001
 40
0.105834
 41
0.105834
 66
1
 10
0
 20
0
 30
0
 70
128
  0
VERTEX
  8
23 園路・他敷地道
 10
158.759268
 20
49.992785
  0
VERTEX
  8
23 園路・他敷地道
 10
159.711154
 20
50.913148
  0
VERTEX
  8
23 園路・他敷地道
 10
162.289652
 20
49.794001
  0
VERTEX
  8
23 園路・他敷地道
 10
169.718014
 20
48.993356
  0
SEQEND
  0
POLYLINE
  8
24 立体交差
 40
0.070556
 41
0.070556
 66
1
 10
0
 20
0
 30
0
  0
VERTEX
  8
24 立体交差
 10
100.232584
 20
31.141103
  0
VERTEX
  8
24 立体交差
 10
110.051685
 20
31.371926
  0
VERTEX
  8
24 立体交差
 10
137.805032
 20
29.755822
  0
VERTEX
  8
24 立体交差
 10
146.975934
 20
28.590339
  0
SEQEND
  0
POLYLINE
  8
24 立体交差
 40
0.070556
 41
0.070556
 66
1
 10
0
 20
0
 30
0
  0
VERTEX
  8
24 立体交差
 10
100.011063
 20
28.304049
  0
VERTEX
  8
24 立体交差
 10
108.472615
 20
27.102048
  0
VERTEX
  8
24 立体交差
 10
138.225336
 20
25.331602
  0
VERTEX
  8
24 立体交差
 10
146.917195
 20
25.238929
  0
SEQEND
  0
POLYLINE
  8
24 立体交差
 40
0.070556
 41
0.070556
 66
1
 10
0
 20
0
 30
0
  0
VERTEX
  8
24 立体交差
 10
118.169587
 20
109.143293
  0
VERTEX
  8
24 立体交差
 10
118.356829
 20
116.824010
  0
VERTEX
  8
24 立体交差
 10
119.037067
 20
129.866535
  0
VERTEX
  8
24 立体交差
 10
119.100285
 20
131.571006
  0
SEQEND
  0
POLYLINE
  8
24 立体交差
 40
0.070556
 41
0.070556
 66
1
 10
0
 20
0
 30
0
  0
VERTEX
  8
24 立体交差
 10
119.598621
 20
108.920997
  0
VERTEX
  8
24 立体交差
 10
119.811874
 20
116.873361
  0
VERTEX
  8
24 立体交差
 10
120.666952
 20
130.003736
  0
VERTEX
  8
24 立体交差
 10
120.731893
 20
131.571006
  0
SEQEND
  0
POLYLINE
  8
25 分離帯等
 40
0.035278
 41
0.035278
 62
252
 66
1
 10
0
 20
0
 30
0
 70
1
  0
VERTEX
  8
25 分離帯等
 10
118.633127
 20
0.892285
  0
VERTEX
  8
25 分離帯等
 10
119.300446
 20
23.648318
 42
0.392347
  0
VERTEX
  8
25 分離帯等
 10
119.197437
 20
23.756839
 42
0.392162
  0
VERTEX
  8
25 分離帯等
 10
119.088744
 20
23.654519
  0
VERTEX
  8
25 分離帯等
 10
118.421769
 20
0.898487
 42
0.393117
  0
VERTEX
  8
25 分離帯等
 10
118.524261
 20
0.789621
 42
0.393681
  0
SEQEND
  0
HATCH
  8
25 分離帯等
 62
255
 10
0.0
 20
0.0
 30
0.0
 210
0.0
 220
0.0
 230
1.0
  2
SOLID
 70
     1
 71
     1
 91
     1
 92
     2
 72
     1
 73
     1
 93
     6
 10
118.633127
 20
0.892285
 42
0.000000
 10
119.300446
 20
23.648318
 42
0.392347
 10
119.197437
 20
23.756839
 42
0.392162
 10
119.088744
 20
23.654519
 42
0.000000
 10
118.421769
 20
0.898487
 42
0.393117
 10
118.524261
 20
0.789621
 42
0.393681
 97
     0
 75
     0
 76
     1
 98
     1
 10
0.0
 20
0.0
  0
POLYLINE
  8
25 分離帯等
 40
0.035278
 41
0.035278
 62
252
 66
1
 10
0
 20
0
 30
0
 70
1
  0
VERTEX
  8
25 分離帯等
 10
118.468451
 20
-1.117941
 42
0.392663
  0
VERTEX
  8
25 分離帯等
 10
118.359585
 20
-1.220261
  0
VERTEX
  8
25 分離帯等
 10
117.860387
 20
-18.254987
  0
VERTEX
  8
25 分離帯等
 10
118.072262
 20
-18.254987
  0
VERTEX
  8
25 分離帯等
 10
118.571287
 20
-1.226806
 42
0.393219
  0
SEQEND
  0
HATCH
  8
25 分離帯等
 62
255
 10
0.0
 20
0.0
 30
0.0
 210
0.0
 220
0.0
 230
1.0
  2
SOLID
 70
     1
 71
     1
 91
     1
 92
     2
 72
     1
 73
     1
 93
     5
 10
118.468451
 20
-1.117941
 42
0.392663
 10
118.359585
 20
-1.220261
 42
0.000000
 10
117.860387
 20
-18.254987
 42
0.000000
 10
118.072262
 20
-18.254987
 42
0.000000
 10
118.571287
 20
-1.226806
 42
0.393219
 97
     0
 75
     0
 76
     1
 98
     1
 10
0.0
 20
0.0
  0
POLYLINE
  8
26 道路
 40
0.070556
 41
0.070556
 62
252
 66
1
 10
0
 20
0
 30
0
  0
VERTEX
  8
26 道路
 10
66.383102
 20
131.571006
  0
VERTEX
  8
26 道路
 10
66.189486
 20
126.927591
  0
VERTEX
  8
26 道路
 10
54.018576
 20
127.192176
  0
VERTEX
  8
26 道路
 10
47.997717
 20
131.571006
  0
SEQEND
  0
POLYLINE
  8
26 道路
 40
0.070556
 41
0.070556
 62
252
 66
1
 10
0
 20
0
 30
0
  0
VERTEX
  8
26 道路
 10
39.649165
 20
131.571006
  0
VERTEX
  8
26 道路
 10
38.628549
 20
126.354324
  0
VERTEX
  8
26 道路
 10
30.729756
 20
127.223871
  0
VERTEX
  8
26 道路
 10
31.580700
 20
131.571006
  0
SEQEND
  0
POLYLINE
  8
26 道路
 40
0.070556
 41
0.070556
 62
252
 66
1
 10
0
 20
0
 30
0
 70
1
  0
VERTEX
  8
26 道路
 10
54.061468
 20
119.051020
  0
VERTEX
  8
26 道路
 10
54.124858
 20
115.620889
  0
VERTEX
  8
26 道路
 10
66.467163
 20
113.800489
  0
VERTEX
  8
26 道路
 10
66.459411
 20
117.728612
  0
SEQEND
  0
POLYLINE
  8
26 道路
 40
0.070556
 41
0.070556
 62
252
 66
1
 10
0
 20
0
 30
0
 70
1
  0
VERTEX
  8
26 道路
 10
59.150940
 20
119.189341
  0
VERTEX
  8
26 道路
 10
66.457689
 20
118.409884
  0
VERTEX
  8
26 道路
 10
66.448215
 20
123.099291
  0
VERTEX
  8
26 道路
 10
65.041401
 20
124.592491
  0
VERTEX
  8
26 道路
 10
59.077903
 20
124.676896
  0
SEQEND
  0
POLYLINE
  8
26 道路
 40
0.070556
 41
0.070556
 62
252
 66
1
 10
0
 20
0
 30
0
 70
1
  0
VERTEX
  8
26 道路
 10
39.680171
 20
121.397834
  0
VERTEX
  8
26 道路
 10
39.243330
 20
117.644206
  0
VERTEX
  8
26 道路
 10
44.026531
 20
117.139324
  0
VERTEX
  8
26 道路
 10
43.855997
 20
120.955997
  0
SEQEND
  0
POLYLINE
  8
26 道路
 40
0.070556
 41
0.070556
 62
252
 66
1
 10
0
 20
0
 30
0
 70
1
  0
VERTEX
  8
26 道路
 10
43.831881
 20
121.493952
  0
VERTEX
  8
26 道路
 10
43.670305
 20
125.104952
  0
VERTEX
  8
26 道路
 10
40.152496
 20
125.452220
  0
VERTEX
  8
26 道路
 10
39.741838
 20
121.926659
  0
SEQEND
  0
POLYLINE
  8
26 道路
 40
0.070556
 41
0.070556
 62
252
 66
1
 10
0
 20
0
 30
0
 70
1
  0
VERTEX
  8
26 道路
 10
39.170638
 20
116.658730
  0
VERTEX
  8
26 道路
 10
38.903986
 20
111.131212
  0
VERTEX
  8
26 道路
 10
44.300073
 20
111.015026
  0
VERTEX
  8
26 道路
 10
44.070973
 20
116.141274
  0
SEQEND
  0
POLYLINE
  8
26 道路
 40
0.070556
 41
0.070556
 62
252
 66
1
 10
0
 20
0
 30
0
 70
1
  0
VERTEX
  8
26 道路
 10
38.863678
 20
110.312308
  0
VERTEX
  8
26 道路
 10
38.666273
 20
106.427077
  0
VERTEX
  8
26 道路
 10
44.513326
 20
106.248620
  0
VERTEX
  8
26 道路
 10
44.336936
 20
110.192935
  0
SEQEND
  0
POLYLINE
  8
26 道路
 40
0.070556
 41
0.070556
 62
252
 66
1
 10
0
 20
0
 30
0
 70
1
  0
VERTEX
  8
26 道路
 10
38.641640
 20
105.606450
  0
VERTEX
  8
26 道路
 10
38.635783
 20
97.674154
  0
VERTEX
  8
26 道路
 10
44.905035
 20
97.482864
  0
VERTEX
  8
26 道路
 10
44.549844
 20
105.426098
  0
SEQEND
  0
POLYLINE
  8
26 道路
 40
0.070556
 41
0.070556
 62
252
 66
1
 10
0
 20
0
 30
0
 70
1
  0
VERTEX
  8
26 道路
 10
38.635267
 20
96.500144
  0
VERTEX
  8
26 道路
 10
38.629410
 20
88.320144
  0
VERTEX
  8
26 道路
 10
45.322411
 20
88.138328
  0
VERTEX
  8
26 道路
 10
44.957746
 20
96.307131
  0
SEQEND
  0
POLYLINE
  8
26 道路
 40
0.070556
 41
0.070556
 62
252
 66
1
 10
0
 20
0
 30
0
 70
1
  0
VERTEX
  8
26 道路
 10
38.628549
 20
87.439830
  0
VERTEX
  8
26 道路
 10
38.623209
 20
79.291611
  0
VERTEX
  8
26 道路
 10
45.724973
 20
79.139509
  0
VERTEX
  8
26 道路
 10
45.361858
 20
87.256981
  0
SEQEND
  0
POLYLINE
  8
26 道路
 40
0.070556
 41
0.070556
 62
252
 66
1
 10
0
 20
0
 30
0
 70
1
  0
VERTEX
  8
26 道路
 10
38.622520
 20
78.410867
  0
VERTEX
  8
26 道路
 10
38.616835
 20
70.330948
  0
VERTEX
  8
26 道路
 10
46.121851
 20
70.257567
  0
VERTEX
  8
26 道路
 10
45.764248
 20
78.257990
  0
SEQEND
  0
POLYLINE
  8
26 道路
 40
0.070556
 41
0.070556
 62
252
 66
1
 10
0
 20
0
 30
0
 70
1
  0
VERTEX
  8
26 道路
 10
38.616319
 20
69.213955
  0
VERTEX
  8
26 道路
 10
38.610462
 20
61.216976
  0
VERTEX
  8
26 道路
 10
46.529064
 20
61.139461
  0
VERTEX
  8
26 道路
 10
46.171805
 20
69.139971
  0
SEQEND
  0
POLYLINE
  8
26 道路
 40
0.070556
 41
0.070556
 62
252
 66
1
 10
0
 20
0
 30
0
 70
1
  0
VERTEX
  8
26 道路
 10
38.609773
 20
60.100069
  0
VERTEX
  8
26 道路
 10
38.604261
 20
52.412635
  0
VERTEX
  8
26 道路
 10
46.926975
 20
52.237623
  0
VERTEX
  8
26 道路
 10
46.579018
 20
60.022210
  0
SEQEND
  0
POLYLINE
  8
26 道路
 40
0.070556
 41
0.070556
 62
252
 66
1
 10
0
 20
0
 30
0
 70
1
  0
VERTEX
  8
26 道路
 10
47.477332
 20
10.825936
  0
VERTEX
  8
26 道路
 10
47.155558
 20
3.449940
  0
VERTEX
  8
26 道路
 10
56.311474
 20
3.374492
  0
VERTEX
  8
26 道路
 10
55.790917
 20
10.983378
  0
VERTEX
  8
26 道路
 10
47.472681
 20
11.050558
  0
SEQEND
  0
POLYLINE
  8
26 道路
 40
0.070556
 41
0.070556
 62
252
 66
1
 10
0
 20
0
 30
0
 70
1
  0
VERTEX
  8
26 道路
 10
55.737862
 20
11.754395
  0
VERTEX
  8
26 道路
 10
55.174241
 20
19.987881
  0
VERTEX
  8
26 道路
 10
47.276999
 20
20.041625
  0
VERTEX
  8
26 道路
 10
47.455800
 20
11.821575
  0
SEQEND
  0
POLYLINE
  8
26 道路
 40
0.070556
 41
0.070556
 62
252
 66
1
 10
0
 20
0
 30
0
 70
1
  0
VERTEX
  8
26 道路
 10
55.121530
 20
20.759243
  0
VERTEX
  8
26 道路
 10
54.615098
 20
28.155565
  0
VERTEX
  8
26 道路
 10
47.097164
 20
28.303016
  0
VERTEX
  8
26 道路
 10
47.259945
 20
20.812297
  0
SEQEND
  0
POLYLINE
  8
26 道路
 40
0.070556
 41
0.070556
 62
252
 66
1
 10
0
 20
0
 30
0
 70
1
  0
VERTEX
  8
26 道路
 10
47.096475
 20
2.097043
  0
VERTEX
  8
26 道路
 10
46.777112
 20
-5.222798
  0
VERTEX
  8
26 道路
 10
56.445317
 20
-5.305136
  0
VERTEX
  8
26 道路
 10
56.375553
 20
2.020561
  0
SEQEND
  0
POLYLINE
  8
26 道路
 40
0.070556
 41
0.070556
 62
252
 66
1
 10
0
 20
0
 30
0
 70
1
  0
VERTEX
  8
26 道路
 10
130.754083
 20
118.894009
  0
VERTEX
  8
26 道路
 10
130.582688
 20
117.187900
  0
VERTEX
  8
26 道路
 10
127.725997
 20
115.940596
  0
VERTEX
  8
26 道路
 10
120.885028
 20
115.848783
  0
VERTEX
  8
26 道路
 10
120.636291
 20
108.254539
  0
VERTEX
  8
26 道路
 10
144.117865
 20
105.284848
  0
VERTEX
  8
26 道路
 10
146.437462
 20
113.328508
  0
VERTEX
  8
26 道路
 10
146.900486
 20
124.411105
  0
VERTEX
  8
26 道路
 10
142.552920
 20
123.407026
  0
VERTEX
  8
26 道路
 10
141.356259
 20
125.727829
  0
VERTEX
  8
26 道路
 10
126.491267
 20
118.100254
  0
VERTEX
  8
26 道路
 10
122.698882
 20
118.012059
  0
VERTEX
  8
26 道路
 10
120.920168
 20
116.921937
  0
VERTEX
  8
26 道路
 10
120.898119
 20
116.249623
  0
VERTEX
  8
26 道路
 10
127.373217
 20
116.336354
  0
VERTEX
  8
26 道路
 10
130.224913
 20
117.512430
  0
VERTEX
  8
26 道路
 10
130.311730
 20
118.952576
  0
SEQEND
  0
POLYLINE
  8
26 道路
 40
0.070556
 41
0.070556
 62
252
 66
1
 10
0
 20
0
 30
0
 70
1
  0
VERTEX
  8
26 道路
 10
93.583163
 20
26.942194
  0
VERTEX
  8
26 道路
 10
93.027121
 20
18.282892
  0
VERTEX
  8
26 道路
 10
103.016583
 20
17.638655
  0
VERTEX
  8
26 道路
 10
103.314241
 20
26.397866
  0
SEQEND
  0
POLYLINE
  8
26 道路
 40
0.070556
 41
0.070556
 62
252
 66
1
 10
0
 20
0
 30
0
 70
1
  0
VERTEX
  8
26 道路
 10
103.100989
 20
33.195427
  0
VERTEX
  8
26 道路
 10
103.163001
 20
37.417073
  0
VERTEX
  8
26 道路
 10
93.972117
 20
37.674768
  0
VERTEX
  8
26 道路
 10
93.745428
 20
33.674987
  0
SEQEND
  0
POLYLINE
  8
26 道路
 40
0.070556
 41
0.070556
 62
252
 66
1
 10
0
 20
0
 30
0
  0
VERTEX
  8
26 道路
 10
128.114090
 20
-18.254987
  0
VERTEX
  8
26 道路
 10
128.175585
 20
-17.390607
  0
VERTEX
  8
26 道路
 10
142.657307
 20
-18.254987
  0
SEQEND
  0
POLYLINE
  8
26 道路
 40
0.070556
 41
0.070556
 62
252
 66
1
 10
0
 20
0
 30
0
 70
1
  0
VERTEX
  8
26 道路
 10
136.486758
 20
-7.077993
  0
VERTEX
  8
26 道路
 10
136.427674
 20
-9.841322
  0
VERTEX
  8
26 道路
 10
133.781824
 20
-11.134963
  0
VERTEX
  8
26 道路
 10
128.673060
 20
-10.969942
  0
VERTEX
  8
26 道路
 10
128.212103
 20
-16.918971
  0
VERTEX
  8
26 道路
 10
144.025880
 20
-17.862933
  0
VERTEX
  8
26 道路
 10
144.427581
 20
-10.703979
  0
VERTEX
  8
26 道路
 10
138.994459
 20
-10.348098
  0
VERTEX
  8
26 道路
 10
139.019091
 20
-9.981194
  0
VERTEX
  8
26 道路
 10
144.448251
 20
-10.337419
  0
VERTEX
  8
26 道路
 10
144.875618
 20
-2.720954
  0
VERTEX
  8
26 道路
 10
129.390678
 20
-1.702577
  0
VERTEX
  8
26 道路
 10
128.709234
 20
-10.504507
  0
VERTEX
  8
26 道路
 10
133.308121
 20
-10.670906
  0
VERTEX
  8
26 道路
 10
135.953971
 20
-9.376920
  0
VERTEX
  8
26 道路
 10
136.074894
 20
-7.077993
  0
SEQEND
  0
POLYLINE
  8
26 道路
 40
0.070556
 41
0.070556
 62
252
 66
1
 10
0
 20
0
 30
0
 70
1
  0
VERTEX
  8
26 道路
 10
143.602131
 20
99.615908
  0
VERTEX
  8
26 道路
 10
143.780932
 20
104.115748
  0
VERTEX
  8
26 道路
 10
140.637780
 20
104.513142
  0
VERTEX
  8
26 道路
 10
139.836790
 20
99.067273
  0
VERTEX
  8
26 道路
 10
143.632448
 20
99.493865
  0
SEQEND
  0
POLYLINE
  8
26 道路
 40
0.070556
 41
0.070556
 62
252
 66
1
 10
0
 20
0
 30
0
 70
1
  0
VERTEX
  8
26 道路
 10
140.094657
 20
104.581872
  0
VERTEX
  8
26 道路
 10
128.002296
 20
106.111160
  0
VERTEX
  8
26 道路
 10
128.771073
 20
77.829934
  0
VERTEX
  8
26 道路
 10
149.469854
 20
76.162584
  0
VERTEX
  8
26 道路
 10
143.764051
 20
98.969432
  0
VERTEX
  8
26 道路
 10
136.633692
 20
98.168184
  0
VERTEX
  8
26 道路
 10
136.545497
 20
98.697354
  0
VERTEX
  8
26 道路
 10
139.274374
 20
99.004055
  0
SEQEND
  0
POLYLINE
  8
26 道路
 40
0.070556
 41
0.070556
 62
252
 66
1
 10
0
 20
0
 30
0
 70
1
  0
VERTEX
  8
26 道路
 10
130.768725
 20
24.109619
  0
VERTEX
  8
26 道路
 10
130.808516
 20
24.625353
  0
VERTEX
  8
26 道路
 10
122.190038
 20
25.185185
  0
VERTEX
  8
26 道路
 10
121.163738
 20
24.340442
  0
VERTEX
  8
26 道路
 10
120.944628
 20
16.681602
  0
VERTEX
  8
26 道路
 10
123.605637
 20
16.517270
  0
VERTEX
  8
26 道路
 10
124.013539
 20
23.205276
  0
SEQEND
  0
POLYLINE
  8
26 道路
 40
0.070556
 41
0.070556
 62
252
 66
1
 10
0
 20
0
 30
0
 70
1
  0
VERTEX
  8
26 道路
 10
124.315848
 20
22.908307
  0
VERTEX
  8
26 道路
 10
124.158406
 20
19.953430
  0
VERTEX
  8
26 道路
 10
130.399408
 20
19.342610
  0
VERTEX
  8
26 道路
 10
130.742370
 20
23.769242
  0
SEQEND
  0
POLYLINE
  8
26 道路
 40
0.070556
 41
0.070556
 62
252
 66
1
 10
0
 20
0
 30
0
  0
VERTEX
  8
26 道路
 10
169.718014
 20
68.625959
 42
0.001836
  0
VERTEX
  8
26 道路
 10
163.014053
 20
68.107351
 42
0.005138
  0
VERTEX
  8
26 道路
 10
161.064052
 20
67.934696
  0
VERTEX
  8
26 道路
 10
161.523286
 20
66.075625
  0
VERTEX
  8
26 道路
 10
162.521681
 20
57.325200
  0
VERTEX
  8
26 道路
 10
165.148238
 20
56.907135
  0
VERTEX
  8
26 道路
 10
165.059699
 20
50.205176
  0
VERTEX
  8
26 道路
 10
169.718014
 20
49.703050
  0
SEQEND
  0
POLYLINE
  8
26 道路
 40
0.070556
 41
0.070556
 62
252
 66
1
 10
0
 20
0
 30
0
  0
VERTEX
  8
26 道路
 10
169.718014
 20
123.825349
  0
VERTEX
  8
26 道路
 10
168.089851
 20
123.706148
  0
VERTEX
  8
26 道路
 10
168.499648
 20
118.701685
  0
VERTEX
  8
26 道路
 10
169.718014
 20
118.088971
  0
SEQEND
  0
POLYLINE
  8
26 道路
 40
0.070556
 41
0.070556
 62
252
 66
1
 10
0
 20
0
 30
0
  0
VERTEX
  8
26 道路
 10
169.718014
 20
48.993356
  0
VERTEX
  8
26 道路
 10
162.289652
 20
49.794001
  0
VERTEX
  8
26 道路
 10
159.711154
 20
50.913148
  0
VERTEX
  8
26 道路
 10
158.776494
 20
50.010010
  0
VERTEX
  8
26 道路
 10
169.718014
 20
43.006087
  0
SEQEND
  0
POLYLINE
  8
26 道路
 40
0.070556
 41
0.070556
 62
252
 66
1
 10
0
 20
0
 30
0
 70
1
  0
VERTEX
  8
26 道路
 10
77.702551
 20
9.789990
  0
VERTEX
  8
26 道路
 10
71.677730
 20
10.178599
  0
VERTEX
  8
26 道路
 10
72.122839
 20
3.079590
  0
VERTEX
  8
26 道路
 10
77.288103
 20
2.744036
  0
SEQEND
  0
POLYLINE
  8
26 道路
 40
0.070556
 41
0.070556
 62
252
 66
1
 10
0
 20
0
 30
0
 70
1
  0
VERTEX
  8
26 道路
 10
77.688598
 20
-12.598449
  0
VERTEX
  8
26 道路
 10
77.514792
 20
-17.535646
  0
VERTEX
  8
26 道路
 10
88.614271
 20
-18.248786
  0
VERTEX
  8
26 道路
 10
89.047667
 20
-13.276448
  0
SEQEND
  0
POLYLINE
  8
26 道路
 40
0.070556
 41
0.070556
 62
252
 66
1
 10
0
 20
0
 30
0
 70
1
  0
VERTEX
  8
26 道路
 10
71.717866
 20
-10.522421
  0
VERTEX
  8
26 道路
 10
76.490731
 20
-10.807333
  0
VERTEX
  8
26 道路
 10
77.206454
 20
1.356343
  0
VERTEX
  8
26 道路
 10
72.124906
 20
1.686385
  0
SEQEND
  0
POLYLINE
  8
26 道路
 40
0.070556
 41
0.070556
 62
252
 66
1
 10
0
 20
0
 30
0
  0
VERTEX
  8
26 道路
 10
169.718014
 20
40.296847
  0
VERTEX
  8
26 道路
 10
160.473903
 20
46.213835
  0
VERTEX
  8
26 道路
 10
158.302446
 20
44.568792
  0
VERTEX
  8
26 道路
 10
157.084769
 20
29.696910
  0
VERTEX
  8
26 道路
 10
158.233199
 20
28.317485
  0
VERTEX
  8
26 道路
 10
169.718014
 20
28.853201
  0
SEQEND
  0
POLYLINE
  8
26 道路
 40
0.070556
 41
0.070556
 62
252
 66
1
 10
0
 20
0
 30
0
 70
1
  0
VERTEX
  8
26 道路
 10
159.010245
 20
51.217179
  0
VERTEX
  8
26 道路
 10
158.965975
 20
51.236472
  0
VERTEX
  8
26 道路
 10
156.935423
 20
59.143360
  0
VERTEX
  8
26 道路
 10
156.202819
 20
58.284493
  0
VERTEX
  8
26 道路
 10
158.173598
 20
50.408093
  0
SEQEND
  0
POLYLINE
  8
26 道路
 40
0.070556
 41
0.070556
 62
252
 66
1
 10
0
 20
0
 30
0
  0
VERTEX
  8
26 道路
 10
169.718014
 20
25.017063
  0
VERTEX
  8
26 道路
 10
157.584311
 20
24.453097
  0
VERTEX
  8
26 道路
 10
156.553877
 20
23.209754
  0
VERTEX
  8
26 道路
 10
154.619271
 20
-0.523658
  0
VERTEX
  8
26 道路
 10
155.563405
 20
-2.127704
  0
VERTEX
  8
26 道路
 10
169.718014
 20
-3.515053
  0
SEQEND
  0
POLYLINE
  8
26 道路
 40
0.070556
 41
0.070556
 62
252
 66
1
 10
0
 20
0
 30
0
  0
VERTEX
  8
26 道路
 10
169.718014
 20
14.561477
  0
VERTEX
  8
26 道路
 10
168.532377
 20
14.539773
  0
VERTEX
  8
26 道路
 10
168.173568
 20
22.105594
  0
VERTEX
  8
26 道路
 10
167.641469
 20
22.080790
  0
VERTEX
  8
26 道路
 10
167.999417
 20
14.530126
  0
VERTEX
  8
26 道路
 10
165.052119
 20
14.476038
  0
VERTEX
  8
26 道路
 10
165.172009
 20
-1.780092
  0
VERTEX
  8
26 道路
 10
165.704625
 20
-1.775958
  0
VERTEX
  8
26 道路
 10
165.588869
 20
13.953069
  0
VERTEX
  8
26 道路
 10
169.718014
 20
14.028862
  0
SEQEND
  0
POLYLINE
  8
26 道路
 40
0.070556
 41
0.070556
 62
252
 66
1
 10
0
 20
0
 30
0
  0
VERTEX
  8
26 道路
 10
169.718014
 20
3.341764
  0
VERTEX
  8
26 道路
 10
166.941077
 20
3.073045
  0
VERTEX
  8
26 道路
 10
166.992409
 20
2.542841
  0
VERTEX
  8
26 道路
 10
169.718014
 20
2.806737
  0
SEQEND
  0
POLYLINE
  8
26 道路
 40
0.070556
 41
0.070556
 62
252
 66
1
 10
0
 20
0
 30
0
  0
VERTEX
  8
26 道路
 10
169.718014
 20
-5.007822
  0
VERTEX
  8
26 道路
 10
162.252617
 20
-4.253342
  0
VERTEX
  8
26 道路
 10
161.993889
 20
-7.396322
  0
VERTEX
  8
26 道路
 10
169.718014
 20
-8.101882
  0
SEQEND
  0
POLYLINE
  8
26 道路
 40
0.070556
 41
0.070556
 62
252
 66
1
 10
0
 20
0
 30
0
  0
VERTEX
  8
26 道路
 10
169.718014
 20
-8.743018
  0
VERTEX
  8
26 道路
 10
161.941351
 20
-8.032980
  0
VERTEX
  8
26 道路
 10
161.099881
 20
-18.254987
  0
SEQEND
  0
POLYLINE
  8
26 道路
 40
0.070556
 41
0.070556
 62
252
 66
1
 10
0
 20
0
 30
0
 70
1
  0
VERTEX
  8
26 道路
 10
89.196668
 20
-11.565947
  0
VERTEX
  8
26 道路
 10
89.690870
 20
-5.901830
  0
VERTEX
  8
26 道路
 10
78.111142
 20
-5.135292
  0
VERTEX
  8
26 道路
 10
77.772831
 20
-10.884159
  0
SEQEND
  0
POLYLINE
  8
26 道路
 40
0.070556
 41
0.070556
 62
252
 66
1
 10
0
 20
0
 30
0
 70
1
  0
VERTEX
  8
26 道路
 10
89.746681
 20
-5.259660
  0
VERTEX
  8
26 道路
 10
90.249668
 20
0.508844
  0
VERTEX
  8
26 道路
 10
78.488038
 20
1.272971
  0
VERTEX
  8
26 道路
 10
78.149038
 20
-4.492088
  0
SEQEND
  0
POLYLINE
  8
26 道路
 40
0.070556
 41
0.070556
 62
252
 66
1
 10
0
 20
0
 30
0
 70
1
  0
VERTEX
  8
26 道路
 10
78.209672
 20
18.407606
  0
VERTEX
  8
26 道路
 10
71.133746
 20
18.864084
  0
VERTEX
  8
26 道路
 10
71.625709
 20
11.013006
  0
VERTEX
  8
26 道路
 10
77.751472
 20
10.617851
  0
SEQEND
  0
POLYLINE
  8
26 道路
 40
0.070556
 41
0.070556
 62
252
 66
1
 10
0
 20
0
 30
0
  0
VERTEX
  8
26 道路
 10
71.361468
 20
-18.254987
  0
VERTEX
  8
26 道路
 10
71.660849
 20
-12.238434
  0
VERTEX
  8
26 道路
 10
76.402019
 20
-12.521623
  0
VERTEX
  8
26 道路
 10
76.136229
 20
-18.254987
  0
SEQEND
  0
POLYLINE
  8
26 道路
 40
0.070556
 41
0.070556
 62
252
 66
1
 10
0
 20
0
 30
0
 70
1
  0
VERTEX
  8
26 道路
 10
160.955014
 20
65.170248
  0
VERTEX
  8
26 道路
 10
158.868823
 20
61.828485
  0
VERTEX
  8
26 道路
 10
158.506052
 20
60.985292
  0
VERTEX
  8
26 道路
 10
157.495944
 20
59.800000
  0
VERTEX
  8
26 道路
 10
159.563359
 20
51.746349
  0
VERTEX
  8
26 道路
 10
162.471899
 20
50.484058
  0
VERTEX
  8
26 道路
 10
164.354828
 20
50.281141
  0
VERTEX
  8
26 道路
 10
164.434754
 20
56.306306
  0
VERTEX
  8
26 道路
 10
161.887435
 20
56.711797
  0
SEQEND
  0
POLYLINE
  8
26 道路
 40
0.070556
 41
0.070556
 62
252
 66
1
 10
0
 20
0
 30
0
 70
1
  0
VERTEX
  8
26 道路
 10
158.173598
 20
63.104901
  0
VERTEX
  8
26 道路
 10
158.070589
 20
62.126660
  0
VERTEX
  8
26 道路
 10
157.848724
 20
61.461235
  0
VERTEX
  8
26 道路
 10
158.091949
 20
61.353575
  0
VERTEX
  8
26 道路
 10
158.407177
 20
61.982137
  0
VERTEX
  8
26 道路
 10
158.550150
 20
63.066660
  0
VERTEX
  8
26 道路
 10
156.150626
 20
72.217322
  0
VERTEX
  8
26 道路
 10
155.693975
 20
73.004445
  0
VERTEX
  8
26 道路
 10
155.065758
 20
73.421476
  0
VERTEX
  8
26 道路
 10
154.200000
 20
73.865552
  0
VERTEX
  8
26 道路
 10
154.094580
 20
73.624910
  0
VERTEX
  8
26 道路
 10
154.986865
 20
73.202970
  0
VERTEX
  8
26 道路
 10
155.692080
 20
72.564503
  0
VERTEX
  8
26 道路
 10
156.114107
 20
71.857393
  0
SEQEND
  0
POLYLINE
  8
26 道路
 40
0.070556
 41
0.070556
 62
252
 66
1
 10
0
 20
0
 30
0
 70
1
  0
VERTEX
  8
26 道路
 10
160.393460
 20
65.687705
  0
VERTEX
  8
26 道路
 10
159.823809
 20
67.813945
  0
VERTEX
  8
26 道路
 10
157.847518
 20
67.627392
  0
VERTEX
  8
26 道路
 10
158.986302
 20
63.225307
  0
SEQEND
  0
POLYLINE
  8
26 道路
 40
0.070556
 41
0.070556
 62
252
 66
1
 10
0
 20
0
 30
0
 70
1
  0
VERTEX
  8
26 道路
 10
159.638462
 20
68.505036
  0
VERTEX
  8
26 道路
 10
158.892767
 20
71.287657
 42
-0.001320
  0
VERTEX
  8
26 道路
 10
156.494104
 20
72.622295
  0
VERTEX
  8
26 道路
 10
156.599180
 20
72.452795
  0
VERTEX
  8
26 道路
 10
157.668544
 20
68.319344
  0
SEQEND
  0
POLYLINE
  8
26 道路
 40
0.070556
 41
0.070556
 62
252
 66
1
 10
0
 20
0
 30
0
 70
1
  0
VERTEX
  8
26 道路
 10
159.357685
 20
71.837067
  0
VERTEX
  8
26 道路
 10
158.258348
 20
75.967935
  0
VERTEX
  8
26 道路
 10
154.164515
 20
74.791427
  0
VERTEX
  8
26 道路
 10
154.297669
 20
74.290679
  0
VERTEX
  8
26 道路
 10
155.327243
 20
73.803970
  0
VERTEX
  8
26 道路
 10
155.326554
 20
73.805262
  0
SEQEND
  0
POLYLINE
  8
26 道路
 40
0.070556
 41
0.070556
 62
252
 66
1
 10
0
 20
0
 30
0
 70
1
  0
VERTEX
  8
26 道路
 10
158.076791
 20
76.649809
  0
VERTEX
  8
26 道路
 10
157.486987
 20
78.865450
  0
VERTEX
  8
26 道路
 10
153.388331
 20
77.708149
  0
VERTEX
  8
26 道路
 10
153.983130
 20
75.473474
  0
SEQEND
  0
POLYLINE
  8
26 道路
 40
0.070556
 41
0.070556
 62
252
 66
1
 10
0
 20
0
 30
0
 70
1
  0
VERTEX
  8
26 道路
 10
152.291061
 20
73.920243
  0
VERTEX
  8
26 道路
 10
155.789577
 20
59.937460
  0
VERTEX
  8
26 道路
 10
157.347632
 20
61.568378
  0
VERTEX
  8
26 道路
 10
157.572598
 20
62.196940
  0
VERTEX
  8
26 道路
 10
157.673367
 20
63.281463
  0
VERTEX
  8
26 道路
 10
155.665553
 20
71.622092
  0
VERTEX
  8
26 道路
 10
155.281422
 20
72.319211
  0
VERTEX
  8
26 道路
 10
154.712978
 20
72.826160
  0
VERTEX
  8
26 道路
 10
153.921290
 20
73.232081
  0
VERTEX
  8
26 道路
 10
153.915089
 20
73.217956
  0
SEQEND
  0
POLYLINE
  8
26 道路
 40
0.070556
 41
0.070556
 62
252
 66
1
 10
0
 20
0
 30
0
 70
1
  0
VERTEX
  8
26 道路
 10
152.740993
 20
75.709120
  0
VERTEX
  8
26 道路
 10
152.340326
 20
77.213775
  0
VERTEX
  8
26 道路
 10
151.520044
 20
77.001987
  0
VERTEX
  8
26 道路
 10
151.745871
 20
76.098763
  0
SEQEND
  0
POLYLINE
  8
26 道路
 40
0.070556
 41
0.070556
 62
252
 66
1
 10
0
 20
0
 30
0
 70
1
  0
VERTEX
  8
26 道路
 10
149.837104
 20
74.695050
  0
VERTEX
  8
26 道路
 10
122.498376
 20
76.897427
  0
VERTEX
  8
26 道路
 10
121.087773
 20
76.333978
  0
VERTEX
  8
26 道路
 10
121.172351
 20
52.226943
  0
VERTEX
  8
26 道路
 10
122.504578
 20
50.858026
  0
VERTEX
  8
26 道路
 10
154.810647
 20
49.645861
  0
VERTEX
  8
26 道路
 10
155.794056
 20
50.885070
  0
SEQEND
  0
POLYLINE
  8
26 道路
 40
0.070556
 41
0.070556
 62
252
 66
1
 10
0
 20
0
 30
0
 70
1
  0
VERTEX
  8
26 道路
 10
153.239846
 20
30.133062
  0
VERTEX
  8
26 道路
 10
154.444604
 20
31.440484
  0
VERTEX
  8
26 道路
 10
155.660041
 20
46.291006
  0
VERTEX
  8
26 道路
 10
154.754664
 20
47.413425
  0
VERTEX
  8
26 道路
 10
122.566245
 20
48.621283
  0
VERTEX
  8
26 道路
 10
121.189404
 20
47.323163
  0
VERTEX
  8
26 道路
 10
121.238842
 20
33.300503
  0
VERTEX
  8
26 道路
 10
122.334733
 20
32.139843
  0
SEQEND
  0
POLYLINE
  8
26 道路
 40
0.070556
 41
0.070556
 62
252
 66
1
 10
0
 20
0
 30
0
  0
VERTEX
  8
26 道路
 10
153.092051
 20
-18.254987
  0
VERTEX
  8
26 道路
 10
154.124380
 20
-4.759085
  0
VERTEX
  8
26 道路
 10
155.184098
 20
-3.629431
  0
VERTEX
  8
26 道路
 10
161.605969
 20
-4.188229
  0
VERTEX
  8
26 道路
 10
160.447892
 20
-18.254987
  0
SEQEND
  0
POLYLINE
  8
26 道路
 40
0.070556
 41
0.070556
 62
252
 66
1
 10
0
 20
0
 30
0
 70
1
  0
VERTEX
  8
26 道路
 10
151.671629
 20
-4.260921
  0
VERTEX
  8
26 道路
 10
150.573325
 20
-3.095782
  0
VERTEX
  8
26 道路
 10
145.431488
 20
-2.757127
  0
VERTEX
  8
26 道路
 10
144.837377
 20
-13.335704
  0
VERTEX
  8
26 道路
 10
150.942986
 20
-13.774957
  0
SEQEND
  0
POLYLINE
  8
26 道路
 40
0.070556
 41
0.070556
 62
252
 66
1
 10
0
 20
0
 30
0
 70
1
  0
VERTEX
  8
26 道路
 10
144.817224
 20
-13.702609
  0
VERTEX
  8
26 道路
 10
144.581405
 20
-17.896006
  0
VERTEX
  8
26 道路
 10
150.600197
 20
-18.255331
  0
VERTEX
  8
26 道路
 10
150.915081
 20
-14.141517
  0
SEQEND
  0
POLYLINE
  8
26 道路
 40
0.070556
 41
0.070556
 62
252
 66
1
 10
0
 20
0
 30
0
  0
VERTEX
  8
26 道路
 10
101.315384
 20
-18.254987
  0
VERTEX
  8
26 道路
 10
90.287909
 20
-17.581811
  0
VERTEX
  8
26 道路
 10
90.221762
 20
-18.254987
  0
SEQEND
  0
POLYLINE
  8
26 道路
 40
0.070556
 41
0.070556
 62
252
 66
1
 10
0
 20
0
 30
0
 70
1
  0
VERTEX
  8
26 道路
 10
102.188722
 20
-6.728658
  0
VERTEX
  8
26 道路
 10
91.296984
 20
-6.007940
  0
VERTEX
  8
26 道路
 10
90.804332
 20
-11.661722
  0
VERTEX
  8
26 道路
 10
101.998034
 20
-12.330419
  0
SEQEND
  0
POLYLINE
  8
26 道路
 40
0.070556
 41
0.070556
 62
252
 66
1
 10
0
 20
0
 30
0
 70
1
  0
VERTEX
  8
26 道路
 10
90.654641
 20
-13.372222
  0
VERTEX
  8
26 道路
 10
90.359395
 20
-16.761873
  0
VERTEX
  8
26 道路
 10
101.822850
 20
-17.498439
  0
VERTEX
  8
26 道路
 10
101.940329
 20
-14.046087
  0
SEQEND
  0
POLYLINE
  8
26 道路
 40
0.070556
 41
0.070556
 62
252
 66
1
 10
0
 20
0
 30
0
 70
1
  0
VERTEX
  8
26 道路
 10
90.803643
 20
8.944558
  0
VERTEX
  8
26 道路
 10
78.984135
 20
9.707307
  0
VERTEX
  8
26 道路
 10
78.569687
 20
2.660664
  0
VERTEX
  8
26 道路
 10
90.350954
 20
1.895159
  0
SEQEND
  0
POLYLINE
  8
26 道路
 40
0.070556
 41
0.070556
 62
252
 66
1
 10
0
 20
0
 30
0
 70
1
  0
VERTEX
  8
26 道路
 10
78.759169
 20
27.749730
  0
VERTEX
  8
26 道路
 10
71.658437
 20
27.890980
  0
VERTEX
  8
26 道路
 10
70.615428
 20
27.135121
  0
VERTEX
  8
26 道路
 10
71.081208
 20
19.698491
  0
VERTEX
  8
26 道路
 10
78.258248
 20
19.235812
  0
SEQEND
  0
POLYLINE
  8
26 道路
 40
0.070556
 41
0.070556
 62
252
 66
1
 10
0
 20
0
 30
0
  0
VERTEX
  8
26 道路
 10
68.959360
 20
-18.254987
  0
VERTEX
  8
26 道路
 10
69.129205
 20
-15.184009
  0
VERTEX
  8
26 道路
 10
65.182306
 20
-15.184009
  0
VERTEX
  8
26 道路
 10
65.195914
 20
-18.254987
  0
SEQEND
  0
POLYLINE
  8
26 道路
 40
0.070556
 41
0.070556
 62
252
 66
1
 10
0
 20
0
 30
0
  0
VERTEX
  8
26 道路
 10
169.718014
 20
125.093152
  0
VERTEX
  8
26 道路
 10
167.990804
 20
124.914609
  0
VERTEX
  8
26 道路
 10
167.501942
 20
130.888787
  0
VERTEX
  8
26 道路
 10
167.003606
 20
131.137955
  0
VERTEX
  8
26 道路
 10
166.918339
 20
131.571006
  0
SEQEND
  0
POLYLINE
  8
26 道路
 40
0.070556
 41
0.070556
 62
252
 66
1
 10
0
 20
0
 30
0
  0
VERTEX
  8
26 道路
 10
169.718014
 20
105.264522
  0
VERTEX
  8
26 道路
 10
165.743554
 20
104.334340
  0
VERTEX
  8
26 道路
 10
162.605053
 20
103.078940
  0
VERTEX
  8
26 道路
 10
158.991814
 20
100.892066
  0
VERTEX
  8
26 道路
 10
162.079328
 20
91.068055
  0
VERTEX
  8
26 道路
 10
169.069815
 20
92.395373
  0
VERTEX
  8
26 道路
 10
169.718014
 20
87.054580
  0
SEQEND
  0
POLYLINE
  8
26 道路
 40
0.070556
 41
0.070556
 62
252
 66
1
 10
0
 20
0
 30
0
  0
VERTEX
  8
26 道路
 10
169.718014
 20
116.091234
  0
VERTEX
  8
26 道路
 10
169.711640
 20
116.074525
  0
VERTEX
  8
26 道路
 10
168.736672
 20
115.807184
  0
VERTEX
  8
26 道路
 10
168.207502
 20
115.101624
  0
VERTEX
  8
26 道路
 10
160.269952
 20
113.866894
  0
VERTEX
  8
26 道路
 10
147.139060
 20
103.926439
  0
VERTEX
  8
26 道路
 10
147.834457
 20
98.579789
  0
VERTEX
  8
26 道路
 10
153.206945
 20
78.390283
  0
VERTEX
  8
26 道路
 10
157.639950
 20
79.641894
  0
VERTEX
  8
26 道路
 10
157.984289
 20
79.739132
  0
VERTEX
  8
26 道路
 10
160.213452
 20
71.365861
  0
VERTEX
  8
26 道路
 10
160.216208
 20
71.364138
  0
VERTEX
  8
26 道路
 10
160.893174
 20
68.626218
  0
VERTEX
  8
26 道路
 10
169.718014
 20
69.336084
  0
SEQEND
  0
POLYLINE
  8
26 道路
 40
0.070556
 41
0.070556
 62
252
 66
1
 10
0
 20
0
 30
0
  0
VERTEX
  8
26 道路
 10
169.718014
 20
104.539928
  0
VERTEX
  8
26 道路
 10
165.956118
 20
103.659442
  0
VERTEX
  8
26 道路
 10
162.920970
 20
102.445383
  0
VERTEX
  8
26 道路
 10
159.995721
 20
100.674937
  0
VERTEX
  8
26 道路
 10
169.718014
 20
96.587564
  0
SEQEND
  0
POLYLINE
  8
26 道路
 40
0.070556
 41
0.070556
 62
252
 66
1
 10
0
 20
0
 30
0
  0
VERTEX
  8
26 道路
 10
169.718014
 20
96.009645
  0
VERTEX
  8
26 道路
 10
159.979012
 20
100.103823
  0
VERTEX
  8
26 道路
 10
162.564400
 20
91.878261
  0
VERTEX
  8
26 道路
 10
169.223295
 20
93.142619
  0
VERTEX
  8
26 道路
 10
169.233458
 20
93.090770
  0
VERTEX
  8
26 道路
 10
169.718014
 20
93.469647
  0
SEQEND
  0
POLYLINE
  8
26 道路
 40
0.070556
 41
0.070556
 62
252
 66
1
 10
0
 20
0
 30
0
  0
VERTEX
  8
26 道路
 10
169.718014
 20
92.793456
  0
VERTEX
  8
26 道路
 10
169.571596
 20
92.678992
  0
VERTEX
  8
26 道路
 10
169.718014
 20
91.473115
  0
SEQEND
  0
POLYLINE
  8
26 道路
 40
0.070556
 41
0.070556
 62
252
 66
1
 10
0
 20
0
 30
0
 70
1
  0
VERTEX
  8
26 道路
 10
146.717378
 20
98.344574
  0
VERTEX
  8
26 道路
 10
146.094673
 20
103.135440
  0
VERTEX
  8
26 道路
 10
146.002688
 20
103.065762
  0
VERTEX
  8
26 道路
 10
145.865228
 20
99.604281
  0
VERTEX
  8
26 道路
 10
151.353989
 20
77.665861
  0
VERTEX
  8
26 道路
 10
152.164625
 20
77.874979
  0
SEQEND
  0
POLYLINE
  8
26 道路
 40
0.070556
 41
0.070556
 62
252
 66
1
 10
0
 20
0
 30
0
 70
1
  0
VERTEX
  8
26 道路
 10
127.949241
 20
86.022165
  0
VERTEX
  8
26 道路
 10
120.926714
 20
86.022165
  0
VERTEX
  8
26 道路
 10
121.054528
 20
79.172583
  0
VERTEX
  8
26 道路
 10
122.286846
 20
78.352300
  0
VERTEX
  8
26 道路
 10
128.170762
 20
77.878252
  0
SEQEND
  0
POLYLINE
  8
26 道路
 40
0.070556
 41
0.070556
 62
252
 66
1
 10
0
 20
0
 30
0
 70
1
  0
VERTEX
  8
26 道路
 10
120.837485
 20
12.925046
  0
VERTEX
  8
26 道路
 10
124.910992
 20
12.808601
  0
VERTEX
  8
26 道路
 10
124.935452
 20
16.134862
  0
VERTEX
  8
26 道路
 10
120.936016
 20
16.381877
  0
SEQEND
  0
POLYLINE
  8
26 道路
 40
0.070556
 41
0.070556
 62
252
 66
1
 10
0
 20
0
 30
0
 70
1
  0
VERTEX
  8
26 道路
 10
130.149293
 20
16.112813
  0
VERTEX
  8
26 道路
 10
130.375981
 20
19.040818
  0
VERTEX
  8
26 道路
 10
124.142731
 20
19.650948
  0
VERTEX
  8
26 道路
 10
123.974781
 20
16.494188
  0
SEQEND
  0
POLYLINE
  8
26 道路
 40
0.070556
 41
0.070556
 62
252
 66
1
 10
0
 20
0
 30
0
 70
1
  0
VERTEX
  8
26 道路
 10
125.289610
 20
12.798266
  0
VERTEX
  8
26 道路
 10
129.882468
 20
12.666662
  0
VERTEX
  8
26 道路
 10
130.126210
 20
15.814121
  0
VERTEX
  8
26 道路
 10
125.313726
 20
16.111435
  0
SEQEND
  0
POLYLINE
  8
26 道路
 40
0.070556
 41
0.070556
 62
252
 66
1
 10
0
 20
0
 30
0
 70
1
  0
VERTEX
  8
26 道路
 10
129.491275
 20
-0.404457
  0
VERTEX
  8
26 道路
 10
150.745237
 20
-1.786982
  0
VERTEX
  8
26 道路
 10
151.822180
 20
-0.722441
  0
VERTEX
  8
26 道路
 10
153.628455
 20
21.465836
  0
VERTEX
  8
26 道路
 10
151.833549
 20
23.260398
  0
VERTEX
  8
26 道路
 10
131.426398
 20
24.585390
  0
SEQEND
  0
POLYLINE
  8
26 道路
 40
0.070556
 41
0.070556
 62
252
 66
1
 10
0
 20
0
 30
0
  0
VERTEX
  8
26 道路
 10
102.903583
 20
-18.254987
  0
VERTEX
  8
26 道路
 10
103.273589
 20
-6.800661
  0
VERTEX
  8
26 道路
 10
113.055655
 20
-7.408035
  0
VERTEX
  8
26 道路
 10
112.547155
 20
-18.254987
  0
SEQEND
  0
POLYLINE
  8
26 道路
 40
0.070556
 41
0.070556
 62
252
 66
1
 10
0
 20
0
 30
0
  0
VERTEX
  8
26 道路
 10
113.064956
 20
-18.254987
  0
VERTEX
  8
26 道路
 10
113.538488
 20
-7.438008
  0
VERTEX
  8
26 道路
 10
116.219306
 20
-7.604407
  0
VERTEX
  8
26 道路
 10
115.871004
 20
-18.254987
  0
SEQEND
  0
POLYLINE
  8
26 道路
 40
0.070556
 41
0.070556
 62
252
 66
1
 10
0
 20
0
 30
0
 70
1
  0
VERTEX
  8
26 道路
 10
116.238254
 20
-6.928131
  0
VERTEX
  8
26 道路
 10
116.403964
 20
-1.138611
  0
VERTEX
  8
26 道路
 10
103.492698
 20
-0.351746
  0
VERTEX
  8
26 道路
 10
103.295638
 20
-6.156080
  0
SEQEND
  0
POLYLINE
  8
26 道路
 40
0.070556
 41
0.070556
 62
252
 66
1
 10
0
 20
0
 30
0
 70
1
  0
VERTEX
  8
26 道路
 10
92.974067
 20
17.455031
  0
VERTEX
  8
26 道路
 10
92.473836
 20
9.668032
  0
VERTEX
  8
26 道路
 10
102.723404
 20
9.006914
  0
VERTEX
  8
26 道路
 10
102.988333
 20
16.809071
  0
SEQEND
  0
POLYLINE
  8
26 道路
 40
0.070556
 41
0.070556
 62
252
 66
1
 10
0
 20
0
 30
0
 70
1
  0
VERTEX
  8
26 道路
 10
92.420781
 20
8.840171
  0
VERTEX
  8
26 道路
 10
91.968092
 20
1.790083
  0
VERTEX
  8
26 道路
 10
102.455029
 20
1.108639
  0
VERTEX
  8
26 道路
 10
102.695154
 20
8.177330
  0
SEQEND
  0
POLYLINE
  8
26 道路
 40
0.070556
 41
0.070556
 62
252
 66
1
 10
0
 20
0
 30
0
 70
1
  0
VERTEX
  8
26 道路
 10
91.856126
 20
0.404457
  0
VERTEX
  8
26 道路
 10
91.352794
 20
-5.365426
  0
VERTEX
  8
26 道路
 10
102.210426
 20
-6.084421
  0
VERTEX
  8
26 道路
 10
102.407831
 20
-0.281122
  0
SEQEND
  0
POLYLINE
  8
26 道路
 40
0.070556
 41
0.070556
 62
252
 66
1
 10
0
 20
0
 30
0
 70
1
  0
VERTEX
  8
26 道路
 10
91.356929
 20
17.559418
  0
VERTEX
  8
26 道路
 10
79.491256
 20
18.324923
  0
VERTEX
  8
26 道路
 10
79.033055
 20
10.535168
  0
VERTEX
  8
26 道路
 10
90.856698
 20
9.772419
  0
SEQEND
  0
POLYLINE
  8
26 道路
 40
0.070556
 41
0.070556
 62
252
 66
1
 10
0
 20
0
 30
0
 70
1
  0
VERTEX
  8
26 道路
 10
79.139165
 20
38.090938
  0
VERTEX
  8
26 道路
 10
69.918481
 20
38.349666
  0
VERTEX
  8
26 道路
 10
70.077129
 20
35.731033
  0
VERTEX
  8
26 道路
 10
71.081725
 20
34.835991
  0
VERTEX
  8
26 道路
 10
79.000327
 20
34.430157
  0
SEQEND
  0
POLYLINE
  8
26 道路
 40
0.070556
 41
0.070556
 62
252
 66
1
 10
0
 20
0
 30
0
 70
1
  0
VERTEX
  8
26 道路
 10
69.412910
 20
-6.677671
  0
VERTEX
  8
26 道路
 10
65.102035
 20
-6.677671
  0
VERTEX
  8
26 道路
 10
65.174727
 20
-14.400590
  0
VERTEX
  8
26 道路
 10
69.155560
 20
-14.400590
  0
SEQEND
  0
POLYLINE
  8
26 道路
 40
0.070556
 41
0.070556
 62
252
 66
1
 10
0
 20
0
 30
0
  0
VERTEX
  8
26 道路
 10
154.330570
 20
131.571006
  0
VERTEX
  8
26 道路
 10
156.229519
 20
128.002985
  0
VERTEX
  8
26 道路
 10
165.855176
 20
129.088197
  0
VERTEX
  8
26 道路
 10
165.724778
 20
130.718426
  0
VERTEX
  8
26 道路
 10
166.343522
 20
131.178694
  0
VERTEX
  8
26 道路
 10
166.266351
 20
131.571006
  0
SEQEND
  0
POLYLINE
  8
26 道路
 40
0.070556
 41
0.070556
 62
252
 66
1
 10
0
 20
0
 30
0
  0
VERTEX
  8
26 道路
 10
152.743749
 20
131.571006
  0
VERTEX
  8
26 道路
 10
148.303510
 20
129.292664
  0
VERTEX
  8
26 道路
 10
148.952742
 20
127.182530
  0
VERTEX
  8
26 道路
 10
155.563922
 20
127.927881
  0
VERTEX
  8
26 道路
 10
153.624838
 20
131.571006
  0
SEQEND
  0
POLYLINE
  8
26 道路
 40
0.070556
 41
0.070556
 62
252
 66
1
 10
0
 20
0
 30
0
 70
1
  0
VERTEX
  8
26 道路
 10
146.660706
 20
106.243797
  0
VERTEX
  8
26 道路
 10
158.858832
 20
115.454404
  0
VERTEX
  8
26 道路
 10
166.267212
 20
116.600939
  0
VERTEX
  8
26 道路
 10
166.796382
 20
117.306499
  0
VERTEX
  8
26 道路
 10
165.907025
 20
128.439653
  0
VERTEX
  8
26 道路
 10
149.147219
 20
126.550179
  0
VERTEX
  8
26 道路
 10
149.240754
 20
126.247008
  0
VERTEX
  8
26 道路
 10
148.700387
 20
113.316967
  0
SEQEND
  0
POLYLINE
  8
26 道路
 40
0.070556
 41
0.070556
 62
252
 66
1
 10
0
 20
0
 30
0
 70
1
  0
VERTEX
  8
26 道路
 10
146.977484
 20
126.258550
  0
VERTEX
  8
26 道路
 10
146.336692
 20
128.283676
  0
VERTEX
  8
26 道路
 10
141.796545
 20
125.953915
  0
VERTEX
  8
26 道路
 10
142.849373
 20
123.959106
  0
VERTEX
  8
26 道路
 10
146.925635
 20
125.013829
  0
SEQEND
  0
POLYLINE
  8
26 道路
 40
0.070556
 41
0.070556
 62
252
 66
1
 10
0
 20
0
 30
0
 70
1
  0
VERTEX
  8
26 道路
 10
120.596844
 20
107.047715
  0
VERTEX
  8
26 道路
 10
120.557225
 20
105.849331
  0
VERTEX
  8
26 道路
 10
120.915690
 20
86.614639
  0
VERTEX
  8
26 道路
 10
127.933049
 20
86.614639
  0
VERTEX
  8
26 道路
 10
127.400778
 20
106.187297
  0
SEQEND
  0
POLYLINE
  8
26 道路
 40
0.070556
 41
0.070556
 62
252
 66
1
 10
0
 20
0
 30
0
 70
1
  0
VERTEX
  8
26 道路
 10
120.472992
 20
0.182247
  0
VERTEX
  8
26 道路
 10
128.873221
 20
-0.364149
  0
VERTEX
  8
26 道路
 10
129.607031
 20
9.104411
  0
VERTEX
  8
26 道路
 10
124.609544
 20
9.385188
  0
VERTEX
  8
26 道路
 10
124.609544
 20
9.737968
  0
VERTEX
  8
26 道路
 10
129.633903
 20
9.455813
  0
VERTEX
  8
26 道路
 10
129.859903
 20
12.371071
  0
VERTEX
  8
26 道路
 10
120.828873
 20
12.629111
  0
SEQEND
  0
POLYLINE
  8
26 道路
 40
0.070556
 41
0.070556
 62
252
 66
1
 10
0
 20
0
 30
0
 70
1
  0
VERTEX
  8
26 道路
 10
120.429239
 20
-1.113462
  0
VERTEX
  8
26 道路
 10
120.118834
 20
-12.110620
  0
VERTEX
  8
26 道路
 10
124.159956
 20
-12.332831
  0
VERTEX
  8
26 道路
 10
124.197508
 20
-10.424925
  0
VERTEX
  8
26 道路
 10
121.243665
 20
-10.135190
  0
VERTEX
  8
26 道路
 10
121.287762
 20
-9.870605
  0
VERTEX
  8
26 道路
 10
126.226682
 20
-10.355678
  0
VERTEX
  8
26 道路
 10
126.214280
 20
-10.977177
  0
VERTEX
  8
26 道路
 10
127.004934
 20
-10.977177
  0
VERTEX
  8
26 道路
 10
127.030428
 20
-10.513809
  0
VERTEX
  8
26 道路
 10
127.249537
 20
-10.525867
  0
VERTEX
  8
26 道路
 10
127.140844
 20
-12.496818
  0
VERTEX
  8
26 道路
 10
127.930293
 20
-12.540227
  0
VERTEX
  8
26 道路
 10
128.426389
 20
-6.137132
  0
VERTEX
  8
26 道路
 10
126.480243
 20
-6.024132
  0
VERTEX
  8
26 道路
 10
126.435801
 20
-7.318462
  0
VERTEX
  8
26 道路
 10
126.182585
 20
-7.268853
  0
VERTEX
  8
26 道路
 10
126.314877
 20
-5.769538
  0
VERTEX
  8
26 道路
 10
128.445338
 20
-5.893217
  0
VERTEX
  8
26 道路
 10
128.772968
 20
-1.662269
  0
VERTEX
  8
26 道路
 10
127.768372
 20
-1.595778
  0
VERTEX
  8
26 道路
 10
127.549607
 20
-4.975783
  0
VERTEX
  8
26 道路
 10
127.285022
 20
-4.931685
  0
VERTEX
  8
26 道路
 10
127.502065
 20
-1.578553
  0
SEQEND
  0
POLYLINE
  8
26 道路
 40
0.070556
 41
0.070556
 62
252
 66
1
 10
0
 20
0
 30
0
 70
1
  0
VERTEX
  8
26 道路
 10
126.209801
 20
-11.181817
  0
VERTEX
  8
26 道路
 10
126.183963
 20
-12.443763
  0
VERTEX
  8
26 道路
 10
126.921907
 20
-12.484760
  0
VERTEX
  8
26 道路
 10
126.993910
 20
-11.181817
  0
SEQEND
  0
POLYLINE
  8
26 道路
 40
0.070556
 41
0.070556
 62
252
 66
1
 10
0
 20
0
 30
0
 70
1
  0
VERTEX
  8
26 道路
 10
124.415756
 20
-10.446284
  0
VERTEX
  8
26 道路
 10
124.378894
 20
-12.344888
  0
VERTEX
  8
26 道路
 10
125.921789
 20
-12.429983
  0
VERTEX
  8
26 道路
 10
125.962097
 20
-10.597869
  0
SEQEND
  0
POLYLINE
  8
26 道路
 40
0.070556
 41
0.070556
 62
252
 66
1
 10
0
 20
0
 30
0
  0
VERTEX
  8
26 道路
 10
119.945200
 20
-18.254987
  0
VERTEX
  8
26 道路
 10
120.109877
 20
-12.421026
  0
VERTEX
  8
26 道路
 10
124.154100
 20
-12.643236
  0
VERTEX
  8
26 道路
 10
124.132051
 20
-13.772200
  0
VERTEX
  8
26 道路
 10
123.580832
 20
-13.751185
  0
VERTEX
  8
26 道路
 10
123.492637
 20
-14.941818
  0
VERTEX
  8
26 道路
 10
123.705545
 20
-14.983504
  0
VERTEX
  8
26 道路
 10
123.793740
 20
-14.003023
  0
VERTEX
  8
26 道路
 10
125.973122
 20
-14.112923
  0
VERTEX
  8
26 道路
 10
125.918000
 20
-13.839380
  0
VERTEX
  8
26 道路
 10
124.350988
 20
-13.780469
  0
VERTEX
  8
26 道路
 10
124.372865
 20
-12.655293
  0
VERTEX
  8
26 道路
 10
127.906521
 20
-12.850287
  0
VERTEX
  8
26 道路
 10
127.488284
 20
-18.254987
  0
SEQEND
  0
POLYLINE
  8
26 道路
 40
0.070556
 41
0.070556
 62
252
 66
1
 10
0
 20
0
 30
0
 70
1
  0
VERTEX
  8
26 道路
 10
116.642711
 20
7.222688
  0
VERTEX
  8
26 道路
 10
103.780366
 20
8.107394
  0
VERTEX
  8
26 道路
 10
103.540069
 20
1.038358
  0
VERTEX
  8
26 道路
 10
116.448751
 20
0.428228
  0
SEQEND
  0
POLYLINE
  8
26 道路
 40
0.070556
 41
0.070556
 62
252
 66
1
 10
0
 20
0
 30
0
 70
1
  0
VERTEX
  8
26 道路
 10
116.666310
 20
8.052617
  0
VERTEX
  8
26 道路
 10
116.889726
 20
15.879579
  0
VERTEX
  8
26 道路
 10
104.073545
 20
16.738791
  0
VERTEX
  8
26 道路
 10
103.808616
 20
8.936634
  0
SEQEND
  0
POLYLINE
  8
26 道路
 40
0.070556
 41
0.070556
 62
252
 66
1
 10
0
 20
0
 30
0
 70
1
  0
VERTEX
  8
26 道路
 10
116.913325
 20
16.709507
  0
VERTEX
  8
26 道路
 10
117.135707
 20
24.487893
  0
VERTEX
  8
26 道路
 10
115.214710
 20
25.638562
  0
VERTEX
  8
26 道路
 10
104.399798
 20
26.337232
  0
VERTEX
  8
26 道路
 10
104.101623
 20
17.568375
  0
SEQEND
  0
POLYLINE
  8
26 道路
 40
0.070556
 41
0.070556
 62
252
 66
1
 10
0
 20
0
 30
0
 70
1
  0
VERTEX
  8
26 道路
 10
117.205815
 20
33.597127
  0
VERTEX
  8
26 道路
 10
117.193929
 20
37.024330
  0
VERTEX
  8
26 道路
 10
104.220479
 20
37.387445
  0
VERTEX
  8
26 道路
 10
104.158295
 20
33.141683
  0
VERTEX
  8
26 道路
 10
104.207388
 20
33.138927
  0
VERTEX
  8
26 道路
 10
116.034303
 20
32.548778
  0
SEQEND
  0
POLYLINE
  8
26 道路
 40
0.070556
 41
0.070556
 62
252
 66
1
 10
0
 20
0
 30
0
 70
1
  0
VERTEX
  8
26 道路
 10
117.190140
 20
38.081981
  0
VERTEX
  8
26 道路
 10
117.175326
 20
42.355993
  0
VERTEX
  8
26 道路
 10
104.298856
 20
42.708773
  0
VERTEX
  8
26 道路
 10
104.236499
 20
38.445096
  0
SEQEND
  0
POLYLINE
  8
26 道路
 40
0.070556
 41
0.070556
 62
252
 66
1
 10
0
 20
0
 30
0
 70
1
  0
VERTEX
  8
26 道路
 10
117.171536
 20
43.413644
  0
VERTEX
  8
26 道路
 10
117.154483
 20
48.178930
  0
VERTEX
  8
26 道路
 10
116.634442
 20
48.699315
  0
VERTEX
  8
26 道路
 10
104.392563
 20
49.063636
  0
VERTEX
  8
26 道路
 10
104.314359
 20
43.766424
  0
SEQEND
  0
POLYLINE
  8
26 道路
 40
0.070556
 41
0.070556
 62
252
 66
1
 10
0
 20
0
 30
0
 70
1
  0
VERTEX
  8
26 道路
 10
117.141908
 20
51.835922
  0
VERTEX
  8
26 道路
 10
117.125372
 20
56.578471
  0
VERTEX
  8
26 道路
 10
104.511420
 20
57.151049
  0
VERTEX
  8
26 道路
 10
104.424603
 20
51.261966
  0
VERTEX
  8
26 道路
 10
116.393284
 20
50.910908
  0
SEQEND
  0
POLYLINE
  8
26 道路
 40
0.070556
 41
0.070556
 62
252
 66
1
 10
0
 20
0
 30
0
 70
1
  0
VERTEX
  8
26 道路
 10
117.121582
 20
57.687798
  0
VERTEX
  8
26 道路
 10
117.106768
 20
61.889980
  0
VERTEX
  8
26 道路
 10
104.589451
 20
62.463420
  0
VERTEX
  8
26 道路
 10
104.527612
 20
58.259688
  0
SEQEND
  0
POLYLINE
  8
26 道路
 40
0.070556
 41
0.070556
 62
252
 66
1
 10
0
 20
0
 30
0
 70
1
  0
VERTEX
  8
26 道路
 10
117.100567
 20
63.661287
  0
VERTEX
  8
26 道路
 10
117.089542
 20
66.725030
  0
VERTEX
  8
26 道路
 10
104.661971
 20
67.380722
  0
VERTEX
  8
26 道路
 10
104.615807
 20
64.232832
  0
SEQEND
  0
POLYLINE
  8
26 道路
 40
0.070556
 41
0.070556
 62
252
 66
1
 10
0
 20
0
 30
0
 70
1
  0
VERTEX
  8
26 道路
 10
117.086097
 20
67.749177
  0
VERTEX
  8
26 道路
 10
117.072145
 20
71.632255
  0
VERTEX
  8
26 道路
 10
104.739314
 20
72.654852
  0
VERTEX
  8
26 道路
 10
104.676785
 20
68.403921
  0
SEQEND
  0
POLYLINE
  8
26 道路
 40
0.070556
 41
0.070556
 62
252
 66
1
 10
0
 20
0
 30
0
 70
1
  0
VERTEX
  8
26 道路
 10
117.069905
 20
72.391817
  0
VERTEX
  8
26 道路
 10
117.053369
 20
77.107407
  0
VERTEX
  8
26 道路
 10
104.815796
 20
77.857409
  0
VERTEX
  8
26 道路
 10
104.750855
 20
73.413380
  0
SEQEND
  0
POLYLINE
  8
26 道路
 40
0.070556
 41
0.070556
 62
252
 66
1
 10
0
 20
0
 30
0
 70
1
  0
VERTEX
  8
26 道路
 10
117.034420
 20
78.538853
  0
VERTEX
  8
26 道路
 10
116.923143
 20
84.505193
  0
VERTEX
  8
26 道路
 10
104.920010
 20
84.932991
  0
VERTEX
  8
26 道路
 10
104.836466
 20
79.269132
  0
SEQEND
  0
POLYLINE
  8
26 道路
 40
0.070556
 41
0.070556
 62
252
 66
1
 10
0
 20
0
 30
0
 70
1
  0
VERTEX
  8
26 道路
 10
116.747787
 20
93.923110
  0
VERTEX
  8
26 道路
 10
105.436778
 20
95.066458
  0
VERTEX
  8
26 道路
 10
105.045068
 20
90.624927
  0
VERTEX
  8
26 道路
 10
116.822029
 20
89.928755
  0
SEQEND
  0
POLYLINE
  8
26 道路
 40
0.070556
 41
0.070556
 62
252
 66
1
 10
0
 20
0
 30
0
 70
1
  0
VERTEX
  8
26 道路
 10
116.767424
 20
113.347628
  0
VERTEX
  8
26 道路
 10
107.092157
 20
113.826500
  0
VERTEX
  8
26 道路
 10
106.724563
 20
109.658425
  0
VERTEX
  8
26 道路
 10
116.617734
 20
108.704988
  0
SEQEND
  0
POLYLINE
  8
26 道路
 40
0.070556
 41
0.070556
 62
252
 66
1
 10
0
 20
0
 30
0
 70
1
  0
VERTEX
  8
26 道路
 10
104.984434
 20
89.311993
  0
VERTEX
  8
26 道路
 10
104.931379
 20
85.706075
  0
VERTEX
  8
26 道路
 10
116.908846
 20
85.279053
  0
VERTEX
  8
26 道路
 10
116.846662
 20
88.610998
  0
SEQEND
  0
POLYLINE
  8
26 道路
 40
0.070556
 41
0.070556
 62
252
 66
1
 10
0
 20
0
 30
0
 70
1
  0
VERTEX
  8
26 道路
 10
116.932273
 20
118.460182
  0
VERTEX
  8
26 道路
 10
114.922908
 20
119.917122
  0
VERTEX
  8
26 道路
 10
101.945841
 20
121.669481
  0
VERTEX
  8
26 道路
 10
101.607013
 20
114.871834
  0
VERTEX
  8
26 道路
 10
116.791884
 20
114.102798
  0
SEQEND
  0
POLYLINE
  8
26 道路
 40
0.070556
 41
0.070556
 62
252
 66
1
 10
0
 20
0
 30
0
 70
1
  0
VERTEX
  8
26 道路
 10
106.599505
 20
108.240414
  0
VERTEX
  8
26 道路
 10
106.020725
 20
101.680394
  0
VERTEX
  8
26 道路
 10
116.623418
 20
100.600953
  0
VERTEX
  8
26 道路
 10
116.572086
 20
107.279054
  0
SEQEND
  0
POLYLINE
  8
26 道路
 40
0.070556
 41
0.070556
 62
252
 66
1
 10
0
 20
0
 30
0
 70
1
  0
VERTEX
  8
26 道路
 10
105.943899
 20
100.810847
  0
VERTEX
  8
26 道路
 10
105.527212
 20
96.089142
  0
VERTEX
  8
26 道路
 10
116.728494
 20
94.957076
  0
VERTEX
  8
26 道路
 10
116.639782
 20
99.722190
  0
SEQEND
  0
POLYLINE
  8
26 道路
 40
0.070556
 41
0.070556
 62
252
 66
1
 10
0
 20
0
 30
0
 70
1
  0
VERTEX
  8
26 道路
 10
105.550122
 20
108.343423
  0
VERTEX
  8
26 道路
 10
101.067508
 20
108.783365
  0
VERTEX
  8
26 道路
 10
100.454622
 20
102.226446
  0
VERTEX
  8
26 道路
 10
104.971343
 20
101.783403
  0
SEQEND
  0
POLYLINE
  8
26 道路
 40
0.070556
 41
0.070556
 62
252
 66
1
 10
0
 20
0
 30
0
 70
1
  0
VERTEX
  8
26 道路
 10
100.373662
 20
101.357242
  0
VERTEX
  8
26 道路
 10
99.933203
 20
96.646648
  0
VERTEX
  8
26 道路
 10
104.477830
 20
96.193787
  0
VERTEX
  8
26 道路
 10
104.894517
 20
100.913684
  0
SEQEND
  0
POLYLINE
  8
26 道路
 40
0.070556
 41
0.070556
 62
252
 66
1
 10
0
 20
0
 30
0
 70
1
  0
VERTEX
  8
26 道路
 10
99.837774
 20
95.624395
  0
VERTEX
  8
26 道路
 10
99.401966
 20
90.958673
  0
VERTEX
  8
26 道路
 10
103.992240
 20
90.687026
  0
VERTEX
  8
26 道路
 10
104.387740
 20
95.170759
  0
SEQEND
  0
POLYLINE
  8
26 道路
 40
0.070556
 41
0.070556
 62
252
 66
1
 10
0
 20
0
 30
0
 70
1
  0
VERTEX
  8
26 道路
 10
99.418331
 20
101.450950
  0
VERTEX
  8
26 道路
 10
94.720569
 20
101.911906
  0
VERTEX
  8
26 道路
 10
94.720569
 20
97.166085
  0
VERTEX
  8
26 道路
 10
98.978217
 20
96.741905
  0
SEQEND
  0
POLYLINE
  8
26 道路
 40
0.070556
 41
0.070556
 62
252
 66
1
 10
0
 20
0
 30
0
 70
1
  0
VERTEX
  8
26 道路
 10
94.720569
 20
96.134359
  0
VERTEX
  8
26 道路
 10
94.720569
 20
91.235574
  0
VERTEX
  8
26 道路
 10
98.443190
 20
91.015431
  0
VERTEX
  8
26 道路
 10
98.882787
 20
95.719394
  0
SEQEND
  0
POLYLINE
  8
26 道路
 40
0.070556
 41
0.070556
 62
252
 66
1
 10
0
 20
0
 30
0
 70
1
  0
VERTEX
  8
26 道路
 10
94.720569
 20
89.919367
  0
VERTEX
  8
26 道路
 10
94.720569
 20
86.010193
  0
VERTEX
  8
26 道路
 10
103.873384
 20
85.737598
  0
VERTEX
  8
26 道路
 10
103.926611
 20
89.374608
  0
SEQEND
  0
POLYLINE
  8
26 道路
 40
0.070556
 41
0.070556
 62
252
 66
1
 10
0
 20
0
 30
0
 70
1
  0
VERTEX
  8
26 道路
 10
94.720569
 20
85.236678
  0
VERTEX
  8
26 道路
 10
94.720569
 20
79.849548
  0
VERTEX
  8
26 道路
 10
103.779332
 20
79.329938
  0
VERTEX
  8
26 道路
 10
103.861843
 20
84.964514
  0
SEQEND
  0
POLYLINE
  8
26 道路
 40
0.070556
 41
0.070556
 62
252
 66
1
 10
0
 20
0
 30
0
 70
1
  0
VERTEX
  8
26 道路
 10
94.720569
 20
78.455309
  0
VERTEX
  8
26 道路
 10
94.720569
 20
74.163382
  0
VERTEX
  8
26 道路
 10
103.693204
 20
73.492532
  0
VERTEX
  8
26 道路
 10
103.758317
 20
77.920024
  0
SEQEND
  0
POLYLINE
  8
26 道路
 40
0.070556
 41
0.070556
 62
252
 66
1
 10
0
 20
0
 30
0
 70
1
  0
VERTEX
  8
26 道路
 10
94.720569
 20
73.404078
  0
VERTEX
  8
26 道路
 10
94.720569
 20
68.954796
  0
VERTEX
  8
26 道路
 10
103.619306
 20
68.462488
  0
VERTEX
  8
26 道路
 10
103.682180
 20
72.734089
  0
SEQEND
  0
POLYLINE
  8
26 道路
 40
0.070556
 41
0.070556
 62
252
 66
1
 10
0
 20
0
 30
0
 70
1
  0
VERTEX
  8
26 道路
 10
94.720569
 20
67.930562
  0
VERTEX
  8
26 道路
 10
94.720569
 20
64.681731
  0
VERTEX
  8
26 道路
 10
103.557639
 20
64.280891
  0
VERTEX
  8
26 道路
 10
103.604320
 20
67.439289
  0
SEQEND
  0
POLYLINE
  8
26 道路
 40
0.070556
 41
0.070556
 62
252
 66
1
 10
0
 20
0
 30
0
 70
1
  0
VERTEX
  8
26 道路
 10
94.720569
 20
62.911113
  0
VERTEX
  8
26 道路
 10
94.720569
 20
58.704797
  0
VERTEX
  8
26 道路
 10
103.469961
 20
58.307747
  0
VERTEX
  8
26 道路
 10
103.531973
 20
62.511135
  0
SEQEND
  0
POLYLINE
  8
26 道路
 40
0.070556
 41
0.070556
 62
252
 66
1
 10
0
 20
0
 30
0
 70
1
  0
VERTEX
  8
26 道路
 10
94.720569
 20
57.595297
  0
VERTEX
  8
26 道路
 10
94.720569
 20
51.534130
  0
VERTEX
  8
26 道路
 10
103.366952
 20
51.291594
  0
VERTEX
  8
26 道路
 10
103.453769
 20
57.199108
  0
SEQEND
  0
POLYLINE
  8
26 道路
 40
0.070556
 41
0.070556
 62
252
 66
1
 10
0
 20
0
 30
0
 70
1
  0
VERTEX
  8
26 道路
 10
94.631857
 20
49.337523
  0
VERTEX
  8
26 道路
 10
94.332304
 20
44.046168
  0
VERTEX
  8
26 道路
 10
103.256708
 20
43.796052
  0
VERTEX
  8
26 道路
 10
103.334567
 20
49.093264
  0
SEQEND
  0
POLYLINE
  8
26 道路
 40
0.070556
 41
0.070556
 62
252
 66
1
 10
0
 20
0
 30
0
 70
1
  0
VERTEX
  8
26 道路
 10
94.272876
 20
42.990239
  0
VERTEX
  8
26 道路
 10
94.031718
 20
38.731041
  0
VERTEX
  8
26 道路
 10
103.178331
 20
38.474724
  0
VERTEX
  8
26 道路
 10
103.241205
 20
42.738746
  0
SEQEND
  0
POLYLINE
  8
26 道路
 40
0.070556
 41
0.070556
 62
252
 66
1
 10
0
 20
0
 30
0
 70
1
  0
VERTEX
  8
26 道路
 10
94.172967
 20
114.877777
  0
VERTEX
  8
26 道路
 10
81.970362
 20
115.503583
  0
VERTEX
  8
26 道路
 10
81.446015
 20
112.139081
  0
VERTEX
  8
26 道路
 10
93.801584
 20
110.926572
  0
SEQEND
  0
POLYLINE
  8
26 道路
 40
0.070556
 41
0.070556
 62
252
 66
1
 10
0
 20
0
 30
0
 70
1
  0
VERTEX
  8
26 道路
 10
81.359026
 20
110.717281
  0
VERTEX
  8
26 道路
 10
81.359026
 20
104.425981
  0
VERTEX
  8
26 道路
 10
93.054338
 20
102.977481
  0
VERTEX
  8
26 道路
 10
93.668085
 20
109.509423
  0
SEQEND
  0
POLYLINE
  8
26 道路
 40
0.070556
 41
0.070556
 62
252
 66
1
 10
0
 20
0
 30
0
 70
1
  0
VERTEX
  8
26 道路
 10
81.359026
 20
103.544203
  0
VERTEX
  8
26 道路
 10
81.359026
 20
98.497451
  0
VERTEX
  8
26 道路
 10
93.000766
 20
97.337480
  0
VERTEX
  8
26 道路
 10
93.000766
 20
102.102421
  0
SEQEND
  0
POLYLINE
  8
26 道路
 40
0.070556
 41
0.070556
 62
252
 66
1
 10
0
 20
0
 30
0
 70
1
  0
VERTEX
  8
26 道路
 10
81.359026
 20
97.465638
  0
VERTEX
  8
26 道路
 10
81.359026
 20
92.847717
  0
VERTEX
  8
26 道路
 10
93.000766
 20
91.405849
  0
VERTEX
  8
26 道路
 10
93.000766
 20
96.305581
  0
SEQEND
  0
POLYLINE
  8
26 道路
 40
0.070556
 41
0.070556
 62
252
 66
1
 10
0
 20
0
 30
0
 70
1
  0
VERTEX
  8
26 道路
 10
81.359026
 20
91.550372
  0
VERTEX
  8
26 道路
 10
81.359026
 20
86.408190
  0
VERTEX
  8
26 道路
 10
93.000766
 20
86.061439
  0
VERTEX
  8
26 道路
 10
93.000766
 20
90.108763
  0
SEQEND
  0
POLYLINE
  8
26 道路
 40
0.070556
 41
0.070556
 62
252
 66
1
 10
0
 20
0
 30
0
 70
1
  0
VERTEX
  8
26 道路
 10
81.359026
 20
85.634675
  0
VERTEX
  8
26 道路
 10
81.359026
 20
81.275999
  0
VERTEX
  8
26 道路
 10
93.000766
 20
79.994674
  0
VERTEX
  8
26 道路
 10
93.000766
 20
85.288010
  0
SEQEND
  0
POLYLINE
  8
26 道路
 40
0.070556
 41
0.070556
 62
252
 66
1
 10
0
 20
0
 30
0
 70
1
  0
VERTEX
  8
26 道路
 10
81.359026
 20
79.859367
  0
VERTEX
  8
26 道路
 10
81.359026
 20
75.162466
  0
VERTEX
  8
26 道路
 10
93.000766
 20
74.291971
  0
VERTEX
  8
26 道路
 10
93.000766
 20
78.588807
  0
SEQEND
  0
POLYLINE
  8
26 道路
 40
0.070556
 41
0.070556
 62
252
 66
1
 10
0
 20
0
 30
0
 70
1
  0
VERTEX
  8
26 道路
 10
81.359026
 20
74.402990
  0
VERTEX
  8
26 道路
 10
81.359026
 20
65.288071
  0
VERTEX
  8
26 道路
 10
93.000766
 20
64.759935
  0
VERTEX
  8
26 道路
 10
93.000766
 20
73.532495
  0
SEQEND
  0
POLYLINE
  8
26 道路
 40
0.070556
 41
0.070556
 62
252
 66
1
 10
0
 20
0
 30
0
 70
1
  0
VERTEX
  8
26 道路
 10
81.329226
 20
63.518659
  0
VERTEX
  8
26 道路
 10
81.170406
 20
59.319750
  0
VERTEX
  8
26 道路
 10
93.000766
 20
58.783001
  0
VERTEX
  8
26 道路
 10
93.000766
 20
62.989145
  0
SEQEND
  0
POLYLINE
  8
26 道路
 40
0.070556
 41
0.070556
 62
252
 66
1
 10
0
 20
0
 30
0
 70
1
  0
VERTEX
  8
26 道路
 10
81.128720
 20
58.212145
  0
VERTEX
  8
26 道路
 10
80.890663
 20
51.922050
  0
VERTEX
  8
26 道路
 10
93.000766
 20
51.582362
  0
VERTEX
  8
26 道路
 10
93.000766
 20
57.673329
  0
SEQEND
  0
POLYLINE
  8
26 道路
 40
0.070556
 41
0.070556
 62
252
 66
1
 10
0
 20
0
 30
0
 70
1
  0
VERTEX
  8
26 道路
 10
80.807291
 20
49.725099
  0
VERTEX
  8
26 道路
 10
80.607129
 20
44.430987
  0
VERTEX
  8
26 道路
 10
92.625421
 20
44.094055
  0
VERTEX
  8
26 道路
 10
92.924801
 20
49.385238
  0
SEQEND
  0
POLYLINE
  8
26 道路
 40
0.070556
 41
0.070556
 62
252
 66
1
 10
0
 20
0
 30
0
 70
1
  0
VERTEX
  8
26 道路
 10
80.566649
 20
43.374370
  0
VERTEX
  8
26 道路
 10
80.405935
 20
39.113104
  0
VERTEX
  8
26 道路
 10
92.324490
 20
38.778928
  0
VERTEX
  8
26 道路
 10
92.565648
 20
43.038126
  0
SEQEND
  0
POLYLINE
  8
26 道路
 40
0.070556
 41
0.070556
 62
252
 66
1
 10
0
 20
0
 30
0
 70
1
  0
VERTEX
  8
26 道路
 10
80.365627
 20
38.056832
  0
VERTEX
  8
26 道路
 10
80.226444
 20
34.367800
  0
VERTEX
  8
26 道路
 10
92.040440
 20
33.762148
  0
VERTEX
  8
26 道路
 10
92.264717
 20
37.722655
  0
SEQEND
  0
POLYLINE
  8
26 道路
 40
0.070556
 41
0.070556
 62
252
 66
1
 10
0
 20
0
 30
0
 70
1
  0
VERTEX
  8
26 道路
 10
80.042475
 20
27.699431
  0
VERTEX
  8
26 道路
 10
79.539832
 20
19.153129
  0
VERTEX
  8
26 道路
 10
91.409983
 20
18.387279
  0
VERTEX
  8
26 道路
 10
91.942426
 20
27.031767
  0
SEQEND
  0
POLYLINE
  8
26 道路
 40
0.070556
 41
0.070556
 62
252
 66
1
 10
0
 20
0
 30
0
 70
1
  0
VERTEX
  8
26 道路
 10
79.580312
 20
49.759550
  0
VERTEX
  8
26 道路
 10
70.615428
 20
50.010871
  0
VERTEX
  8
26 道路
 10
69.315413
 20
48.326726
  0
VERTEX
  8
26 道路
 10
69.531939
 20
44.741737
  0
VERTEX
  8
26 道路
 10
79.380323
 20
44.465439
  0
SEQEND
  0
POLYLINE
  8
26 道路
 40
0.070556
 41
0.070556
 62
252
 66
1
 10
0
 20
0
 30
0
 70
1
  0
VERTEX
  8
26 道路
 10
69.596190
 20
43.682019
  0
VERTEX
  8
26 道路
 10
69.854574
 20
39.409040
  0
VERTEX
  8
26 道路
 10
79.178956
 20
39.147556
  0
VERTEX
  8
26 道路
 10
79.340360
 20
43.408821
  0
SEQEND
  0
POLYLINE
  8
26 道路
 40
0.070556
 41
0.070556
 62
252
 66
1
 10
0
 20
0
 30
0
 70
1
  0
VERTEX
  8
26 道路
 10
69.696443
 20
1.824190
  0
VERTEX
  8
26 道路
 10
65.020386
 20
1.975086
  0
VERTEX
  8
26 道路
 10
65.094283
 20
-5.893906
  0
VERTEX
  8
26 道路
 10
69.439093
 20
-5.893906
  0
SEQEND
  0
POLYLINE
  8
26 道路
 40
0.070556
 41
0.070556
 62
252
 66
1
 10
0
 20
0
 30
0
  0
VERTEX
  8
26 道路
 10
56.544708
 20
-18.254987
  0
VERTEX
  8
26 道路
 10
56.542469
 20
-15.458241
  0
VERTEX
  8
26 道路
 10
46.334415
 20
-15.371424
  0
VERTEX
  8
26 道路
 10
46.264651
 20
-18.254987
  0
SEQEND
  0
POLYLINE
  8
26 道路
 40
0.070556
 41
0.070556
 62
252
 66
1
 10
0
 20
0
 30
0
 70
1
  0
VERTEX
  8
26 道路
 10
37.851503
 20
3.529178
  0
VERTEX
  8
26 道路
 10
46.284460
 20
3.457175
  0
VERTEX
  8
26 道路
 10
46.601067
 20
10.716726
  0
VERTEX
  8
26 道路
 10
46.593487
 20
11.058137
  0
VERTEX
  8
26 道路
 10
38.182923
 20
11.129451
  0
SEQEND
  0
POLYLINE
  8
26 道路
 40
0.070556
 41
0.070556
 62
252
 66
1
 10
0
 20
0
 30
0
 70
1
  0
VERTEX
  8
26 道路
 10
38.203766
 20
11.900124
  0
VERTEX
  8
26 道路
 10
46.576951
 20
11.828810
  0
VERTEX
  8
26 道路
 10
46.397805
 20
20.047481
  0
VERTEX
  8
26 道路
 10
38.025481
 20
20.107082
  0
SEQEND
  0
POLYLINE
  8
26 道路
 40
0.070556
 41
0.070556
 62
252
 66
1
 10
0
 20
0
 30
0
 70
1
  0
VERTEX
  8
26 道路
 10
56.487864
 20
-14.313084
  0
VERTEX
  8
26 道路
 10
56.457547
 20
-6.569149
  0
VERTEX
  8
26 道路
 10
46.722335
 20
-6.486467
  0
VERTEX
  8
26 道路
 10
46.384369
 20
-14.227645
  0
SEQEND
  0
POLYLINE
  8
26 道路
 40
0.070556
 41
0.070556
 62
252
 66
1
 10
0
 20
0
 30
0
 70
1
  0
VERTEX
  8
26 道路
 10
38.562230
 20
50.298022
  0
VERTEX
  8
26 道路
 10
38.442340
 20
47.183980
  0
VERTEX
  8
26 道路
 10
46.783313
 20
46.942478
  0
VERTEX
  8
26 道路
 10
46.910438
 20
50.122321
  0
SEQEND
  0
POLYLINE
  8
26 道路
 40
0.070556
 41
0.070556
 62
252
 66
1
 10
0
 20
0
 30
0
 70
1
  0
VERTEX
  8
26 道路
 10
38.419602
 20
46.596243
  0
VERTEX
  8
26 道路
 10
38.263883
 20
42.555810
  0
VERTEX
  8
26 道路
 10
46.602100
 20
42.425585
  0
VERTEX
  8
26 道路
 10
46.759887
 20
46.355085
  0
SEQEND
  0
POLYLINE
  8
26 道路
 40
0.070556
 41
0.070556
 62
252
 66
1
 10
0
 20
0
 30
0
 70
1
  0
VERTEX
  8
26 道路
 10
38.231154
 20
41.704177
  0
VERTEX
  8
26 道路
 10
38.043568
 20
36.843806
  0
VERTEX
  8
26 道路
 10
46.373344
 20
36.714614
  0
VERTEX
  8
26 道路
 10
46.567994
 20
41.573263
  0
SEQEND
  0
POLYLINE
  8
26 道路
 40
0.070556
 41
0.070556
 62
252
 66
1
 10
0
 20
0
 30
0
 70
1
  0
VERTEX
  8
26 道路
 10
37.842890
 20
28.485262
  0
VERTEX
  8
26 道路
 10
38.008600
 20
20.878099
  0
VERTEX
  8
26 道路
 10
46.381268
 20
20.818499
  0
VERTEX
  8
26 道路
 10
46.218314
 20
28.320586
  0
SEQEND
  0
POLYLINE
  8
26 道路
 40
0.070556
 41
0.070556
 62
252
 66
1
 10
0
 20
0
 30
0
 70
1
  0
VERTEX
  8
26 道路
 10
37.792074
 20
2.175936
  0
VERTEX
  8
26 道路
 10
37.472884
 20
-5.143560
  0
VERTEX
  8
26 道路
 10
45.905842
 20
-5.215563
  0
VERTEX
  8
26 道路
 10
46.225032
 20
2.104278
  0
SEQEND
  0
POLYLINE
  8
26 道路
 40
0.070556
 41
0.070556
 62
252
 66
1
 10
0
 20
0
 30
0
 70
1
  0
VERTEX
  8
26 道路
 10
37.417762
 20
-6.407229
  0
VERTEX
  8
26 道路
 10
37.080141
 20
-14.149096
  0
VERTEX
  8
26 道路
 10
45.513099
 20
-14.220755
  0
VERTEX
  8
26 道路
 10
45.850720
 20
-6.478887
  0
SEQEND
  0
POLYLINE
  8
26 道路
 40
0.070556
 41
0.070556
 62
252
 66
1
 10
0
 20
0
 30
0
 70
1
  0
VERTEX
  8
26 道路
 10
28.724009
 20
3.606693
  0
VERTEX
  8
26 道路
 10
36.979888
 20
3.536413
  0
VERTEX
  8
26 道路
 10
37.311480
 20
11.137030
  0
VERTEX
  8
26 道路
 10
29.054913
 20
11.207311
  0
VERTEX
  8
26 道路
 10
29.055429
 20
11.200765
  0
SEQEND
  0
POLYLINE
  8
26 道路
 40
0.070556
 41
0.070556
 62
252
 66
1
 10
0
 20
0
 30
0
 70
1
  0
VERTEX
  8
26 道路
 10
29.038204
 20
11.977983
  0
VERTEX
  8
26 道路
 10
37.325089
 20
11.907359
  0
VERTEX
  8
26 道路
 10
37.146632
 20
20.113283
  0
VERTEX
  8
26 道路
 10
28.860091
 20
20.172195
  0
SEQEND
  0
POLYLINE
  8
26 道路
 40
0.070556
 41
0.070556
 62
252
 66
1
 10
0
 20
0
 30
0
  0
VERTEX
  8
26 道路
 10
36.927522
 20
-18.254987
  0
VERTEX
  8
26 道路
 10
37.030187
 20
-15.292531
  0
VERTEX
  8
26 道路
 10
45.463489
 20
-15.364189
  0
VERTEX
  8
26 道路
 10
45.393209
 20
-18.254987
  0
SEQEND
  0
POLYLINE
  8
26 道路
 40
0.070556
 41
0.070556
 62
252
 66
1
 10
0
 20
0
 30
0
  0
VERTEX
  8
26 道路
 10
146.932009
 20
131.571006
  0
VERTEX
  8
26 道路
 10
127.079004
 20
121.481033
  0
VERTEX
  8
26 道路
 10
123.051662
 20
121.363727
  0
VERTEX
  8
26 道路
 10
121.400417
 20
123.069060
  0
VERTEX
  8
26 道路
 10
121.579564
 20
128.547485
  0
VERTEX
  8
26 道路
 10
120.666952
 20
130.003736
  0
VERTEX
  8
26 道路
 10
120.731893
 20
131.571006
  0
SEQEND
  0
POLYLINE
  8
26 道路
 40
0.070556
 41
0.070556
 62
252
 66
1
 10
0
 20
0
 30
0
 70
1
  0
VERTEX
  8
26 道路
 10
117.264554
 20
128.758240
  0
VERTEX
  8
26 道路
 10
98.718627
 20
128.857546
  0
VERTEX
  8
26 道路
 10
96.923204
 20
127.948724
  0
VERTEX
  8
26 道路
 10
96.327888
 20
127.045845
  0
VERTEX
  8
26 道路
 10
96.040221
 20
124.544604
  0
VERTEX
  8
26 道路
 10
115.630880
 20
121.887040
  0
VERTEX
  8
26 道路
 10
117.099533
 20
123.341052
  0
SEQEND
  0
POLYLINE
  8
26 道路
 40
0.070556
 41
0.070556
 62
252
 66
1
 10
0
 20
0
 30
0
 70
1
  0
VERTEX
  8
26 道路
 10
95.489174
 20
110.761034
  0
VERTEX
  8
26 道路
 10
105.675525
 20
109.761434
  0
VERTEX
  8
26 道路
 10
106.038812
 20
113.882655
  0
VERTEX
  8
26 道路
 10
100.725063
 20
114.166274
  0
VERTEX
  8
26 道路
 10
101.104371
 20
121.780931
  0
VERTEX
  8
26 道路
 10
96.581793
 20
122.380467
  0
SEQEND
  0
POLYLINE
  8
26 道路
 40
0.070556
 41
0.070556
 62
252
 66
1
 10
0
 20
0
 30
0
 70
1
  0
VERTEX
  8
26 道路
 10
95.356021
 20
109.343713
  0
VERTEX
  8
26 道路
 10
94.739517
 20
102.787311
  0
VERTEX
  8
26 道路
 10
99.499808
 20
102.320325
  0
VERTEX
  8
26 道路
 10
100.112177
 20
108.877072
  0
SEQEND
  0
POLYLINE
  8
26 道路
 40
0.070556
 41
0.070556
 62
252
 66
1
 10
0
 20
0
 30
0
 70
1
  0
VERTEX
  8
26 道路
 10
94.899543
 20
122.603625
  0
VERTEX
  8
26 道路
 10
83.316370
 20
124.139113
  0
VERTEX
  8
26 道路
 10
82.870055
 20
121.253483
  0
VERTEX
  8
26 道路
 10
89.876906
 20
120.274036
  0
VERTEX
  8
26 道路
 10
89.485885
 20
115.868593
  0
VERTEX
  8
26 道路
 10
94.243248
 20
115.624679
  0
SEQEND
  0
POLYLINE
  8
26 道路
 40
0.070556
 41
0.070556
 62
252
 66
1
 10
0
 20
0
 30
0
 70
1
  0
VERTEX
  8
26 道路
 10
82.772386
 20
120.651277
  0
VERTEX
  8
26 道路
 10
82.086463
 20
116.248072
  0
VERTEX
  8
26 道路
 10
88.817188
 20
115.902872
  0
VERTEX
  8
26 道路
 10
89.163767
 20
119.811013
  0
SEQEND
  0
POLYLINE
  8
26 道路
 40
0.070556
 41
0.070556
 62
252
 66
1
 10
0
 20
0
 30
0
 70
1
  0
VERTEX
  8
26 道路
 10
82.131249
 20
124.282086
  0
VERTEX
  8
26 道路
 10
70.334651
 20
124.634521
  0
VERTEX
  8
26 道路
 10
69.364506
 20
123.576181
  0
VERTEX
  8
26 道路
 10
69.341941
 20
117.839372
  0
VERTEX
  8
26 道路
 10
80.894452
 20
116.345569
  0
SEQEND
  0
POLYLINE
  8
26 道路
 40
0.070556
 41
0.070556
 62
252
 66
1
 10
0
 20
0
 30
0
 70
1
  0
VERTEX
  8
26 道路
 10
69.339185
 20
117.088164
  0
VERTEX
  8
26 道路
 10
69.324371
 20
113.328766
  0
VERTEX
  8
26 道路
 10
80.256589
 20
112.255698
  0
VERTEX
  8
26 道路
 10
80.779730
 20
115.608659
  0
SEQEND
  0
POLYLINE
  8
26 道路
 40
0.070556
 41
0.070556
 62
252
 66
1
 10
0
 20
0
 30
0
 70
1
  0
VERTEX
  8
26 道路
 10
69.318514
 20
111.898784
  0
VERTEX
  8
26 道路
 10
69.295087
 20
105.919956
  0
VERTEX
  8
26 道路
 10
80.124296
 20
104.578944
  0
VERTEX
  8
26 道路
 10
80.124296
 20
110.838377
  0
SEQEND
  0
POLYLINE
  8
26 道路
 40
0.070556
 41
0.070556
 62
252
 66
1
 10
0
 20
0
 30
0
 70
1
  0
VERTEX
  8
26 道路
 10
69.291642
 20
105.038695
  0
VERTEX
  8
26 道路
 10
69.270455
 20
99.702036
  0
VERTEX
  8
26 道路
 10
80.124296
 20
98.620614
  0
VERTEX
  8
26 道路
 10
80.124296
 20
103.697166
  0
SEQEND
  0
POLYLINE
  8
26 道路
 40
0.070556
 41
0.070556
 62
252
 66
1
 10
0
 20
0
 30
0
 70
1
  0
VERTEX
  8
26 道路
 10
69.266837
 20
98.670740
  0
VERTEX
  8
26 道路
 10
69.249612
 20
94.347376
  0
VERTEX
  8
26 道路
 10
80.124296
 20
93.000422
  0
VERTEX
  8
26 道路
 10
80.124296
 20
97.588715
  0
SEQEND
  0
POLYLINE
  8
26 道路
 40
0.070556
 41
0.070556
 62
252
 66
1
 10
0
 20
0
 30
0
 70
1
  0
VERTEX
  8
26 道路
 10
69.244444
 20
93.050720
  0
VERTEX
  8
26 道路
 10
69.223256
 20
87.668242
  0
VERTEX
  8
26 道路
 10
80.124296
 20
86.471752
  0
VERTEX
  8
26 道路
 10
80.124296
 20
91.703335
  0
SEQEND
  0
POLYLINE
  8
26 道路
 40
0.070556
 41
0.070556
 62
252
 66
1
 10
0
 20
0
 30
0
 70
1
  0
VERTEX
  8
26 道路
 10
69.220328
 20
86.920221
  0
VERTEX
  8
26 道路
 10
69.203447
 20
82.613996
  0
VERTEX
  8
26 道路
 10
80.124296
 20
81.411995
  0
VERTEX
  8
26 道路
 10
80.124296
 20
85.723301
  0
SEQEND
  0
POLYLINE
  8
26 道路
 40
0.070556
 41
0.070556
 62
252
 66
1
 10
0
 20
0
 30
0
 70
1
  0
VERTEX
  8
26 道路
 10
69.197935
 20
81.186340
  0
VERTEX
  8
26 道路
 10
69.175886
 20
75.608437
  0
VERTEX
  8
26 道路
 10
80.124296
 20
75.220689
  0
VERTEX
  8
26 道路
 10
80.124296
 20
79.994071
  0
SEQEND
  0
POLYLINE
  8
26 道路
 40
0.070556
 41
0.070556
 62
252
 66
1
 10
0
 20
0
 30
0
 70
1
  0
VERTEX
  8
26 道路
 10
69.173130
 20
74.836903
  0
VERTEX
  8
26 道路
 10
69.137301
 20
65.843080
  0
VERTEX
  8
26 道路
 10
80.124296
 20
65.344571
  0
VERTEX
  8
26 道路
 10
80.124296
 20
74.449155
  0
SEQEND
  0
POLYLINE
  8
26 道路
 40
0.070556
 41
0.070556
 62
252
 66
1
 10
0
 20
0
 30
0
 70
1
  0
VERTEX
  8
26 道路
 10
69.130411
 20
64.072289
  0
VERTEX
  8
26 道路
 10
69.113874
 20
59.866835
  0
VERTEX
  8
26 道路
 10
79.944633
 20
59.375217
  0
VERTEX
  8
26 道路
 10
80.103109
 20
63.574126
  0
SEQEND
  0
POLYLINE
  8
26 道路
 40
0.070556
 41
0.070556
 62
252
 66
1
 10
0
 20
0
 30
0
 70
1
  0
VERTEX
  8
26 道路
 10
69.109395
 20
58.757507
  0
VERTEX
  8
26 道路
 10
69.089414
 20
53.615498
  0
VERTEX
  8
26 道路
 10
70.228369
 20
52.221086
  0
VERTEX
  8
26 道路
 10
79.663512
 20
51.956501
  0
VERTEX
  8
26 道路
 10
79.902603
 20
58.267612
  0
SEQEND
  0
POLYLINE
  8
26 道路
 40
0.070556
 41
0.070556
 62
252
 66
1
 10
0
 20
0
 30
0
 70
1
  0
VERTEX
  8
26 道路
 10
69.187944
 20
10.218907
  0
VERTEX
  8
26 道路
 10
64.442640
 20
10.652647
  0
VERTEX
  8
26 道路
 10
64.965092
 20
3.365879
  0
VERTEX
  8
26 道路
 10
69.665437
 20
3.214294
  0
SEQEND
  0
POLYLINE
  8
26 道路
 40
0.070556
 41
0.070556
 62
252
 66
1
 10
0
 20
0
 30
0
  0
VERTEX
  8
26 道路
 10
64.212333
 20
-18.254987
  0
VERTEX
  8
26 道路
 10
64.079180
 20
1.961650
  0
VERTEX
  8
26 道路
 10
57.258192
 20
2.222101
  0
VERTEX
  8
26 道路
 10
57.419596
 20
-18.254987
  0
SEQEND
  0
POLYLINE
  8
26 道路
 40
0.070556
 41
0.070556
 62
252
 66
1
 10
0
 20
0
 30
0
 70
1
  0
VERTEX
  8
26 道路
 10
64.022335
 20
3.396541
  0
VERTEX
  8
26 道路
 10
62.251201
 20
28.078050
  0
VERTEX
  8
26 道路
 10
55.723565
 20
28.207931
  0
VERTEX
  8
26 道路
 10
57.181883
 20
3.691443
  0
SEQEND
  0
POLYLINE
  8
26 道路
 40
0.070556
 41
0.070556
 62
252
 66
1
 10
0
 20
0
 30
0
 70
1
  0
VERTEX
  8
26 道路
 10
62.061375
 20
35.498487
  0
VERTEX
  8
26 道路
 10
61.085028
 20
43.843250
  0
VERTEX
  8
26 道路
 10
54.382208
 20
44.057537
  0
VERTEX
  8
26 道路
 10
54.273687
 20
49.906312
  0
VERTEX
  8
26 道路
 10
47.680250
 20
50.123354
  0
VERTEX
  8
26 道路
 10
47.204996
 20
38.748956
  0
VERTEX
  8
26 道路
 10
53.061523
 20
38.774449
  0
VERTEX
  8
26 道路
 10
53.083571
 20
38.179478
  0
VERTEX
  8
26 道路
 10
47.146429
 20
38.131935
  0
VERTEX
  8
26 道路
 10
47.070119
 20
36.599891
  0
SEQEND
  0
POLYLINE
  8
26 道路
 40
0.070556
 41
0.070556
 62
252
 66
1
 10
0
 20
0
 30
0
 70
1
  0
VERTEX
  8
26 道路
 10
47.965505
 20
52.246236
  0
VERTEX
  8
26 道路
 10
54.229245
 20
52.314794
  0
VERTEX
  8
26 道路
 10
54.075593
 20
60.620282
  0
VERTEX
  8
26 道路
 10
53.399316
 20
61.244365
  0
VERTEX
  8
26 道路
 10
47.615998
 20
61.244365
  0
SEQEND
  0
POLYLINE
  8
26 道路
 40
0.070556
 41
0.070556
 62
252
 66
1
 10
0
 20
0
 30
0
 70
1
  0
VERTEX
  8
26 道路
 10
55.432969
 20
44.858526
  0
VERTEX
  8
26 道路
 10
61.015265
 20
44.680069
  0
VERTEX
  8
26 道路
 10
61.015265
 20
49.906312
  0
VERTEX
  8
26 道路
 10
55.339606
 20
49.906312
  0
SEQEND
  0
POLYLINE
  8
26 道路
 40
0.070556
 41
0.070556
 62
252
 66
1
 10
0
 20
0
 30
0
 70
1
  0
VERTEX
  8
26 道路
 10
66.589120
 20
53.703348
  0
VERTEX
  8
26 道路
 10
66.555185
 20
70.392443
  0
VERTEX
  8
26 道路
 10
54.961333
 20
70.373150
  0
VERTEX
  8
26 道路
 10
55.295164
 20
52.314794
  0
VERTEX
  8
26 道路
 10
65.395731
 20
52.314794
  0
SEQEND
  0
POLYLINE
  8
26 道路
 40
0.070556
 41
0.070556
 62
252
 66
1
 10
0
 20
0
 30
0
 70
1
  0
VERTEX
  8
26 道路
 10
65.107892
 20
49.906312
  0
VERTEX
  8
26 道路
 10
61.838475
 20
49.906312
  0
VERTEX
  8
26 道路
 10
61.838475
 20
44.653886
  0
VERTEX
  8
26 道路
 10
66.961709
 20
44.489899
  0
VERTEX
  8
26 道路
 10
66.714694
 20
48.514140
  0
SEQEND
  0
POLYLINE
  8
26 道路
 40
0.070556
 41
0.070556
 62
252
 66
1
 10
0
 20
0
 30
0
 70
1
  0
VERTEX
  8
26 道路
 10
66.553807
 20
71.230123
  0
VERTEX
  8
26 道路
 10
66.543472
 20
76.273430
  0
VERTEX
  8
26 道路
 10
54.844715
 20
76.662729
  0
VERTEX
  8
26 道路
 10
54.945830
 20
71.211175
  0
SEQEND
  0
POLYLINE
  8
26 道路
 40
0.070556
 41
0.070556
 62
252
 66
1
 10
0
 20
0
 30
0
 70
1
  0
VERTEX
  8
26 道路
 10
66.541405
 20
77.270103
  0
VERTEX
  8
26 道路
 10
66.532792
 20
81.463844
  0
VERTEX
  8
26 道路
 10
54.733610
 20
82.689789
  0
VERTEX
  8
26 道路
 10
54.826628
 20
77.659746
  0
SEQEND
  0
POLYLINE
  8
26 道路
 40
0.070556
 41
0.070556
 62
252
 66
1
 10
0
 20
0
 30
0
 70
1
  0
VERTEX
  8
26 道路
 10
66.530553
 20
82.469818
  0
VERTEX
  8
26 道路
 10
66.521423
 20
87.099022
  0
VERTEX
  8
26 道路
 10
54.621988
 20
88.732524
  0
VERTEX
  8
26 道路
 10
54.715007
 20
83.697572
  0
SEQEND
  0
POLYLINE
  8
26 道路
 40
0.070556
 41
0.070556
 62
252
 66
1
 10
0
 20
0
 30
0
 70
1
  0
VERTEX
  8
26 道路
 10
66.519701
 20
87.879255
  0
VERTEX
  8
26 道路
 10
66.508504
 20
93.373786
  0
VERTEX
  8
26 道路
 10
54.507955
 20
94.898681
  0
VERTEX
  8
26 道路
 10
54.607519
 20
89.514308
  0
SEQEND
  0
POLYLINE
  8
26 道路
 40
0.070556
 41
0.070556
 62
252
 66
1
 10
0
 20
0
 30
0
 70
1
  0
VERTEX
  8
26 道路
 10
66.506265
 20
94.625483
  0
VERTEX
  8
26 道路
 10
66.496274
 20
99.389392
  0
VERTEX
  8
26 道路
 10
54.394266
 20
101.050455
  0
VERTEX
  8
26 道路
 10
54.484356
 20
96.153221
  0
SEQEND
  0
POLYLINE
  8
26 道路
 40
0.070556
 41
0.070556
 62
252
 66
1
 10
0
 20
0
 30
0
 70
1
  0
VERTEX
  8
26 道路
 10
66.494896
 20
100.169538
  0
VERTEX
  8
26 道路
 10
66.484561
 20
105.312237
  0
VERTEX
  8
26 道路
 10
54.284367
 20
106.986736
  0
VERTEX
  8
26 道路
 10
54.379797
 20
101.832324
  0
SEQEND
  0
POLYLINE
  8
26 道路
 40
0.070556
 41
0.070556
 62
252
 66
1
 10
0
 20
0
 30
0
 70
1
  0
VERTEX
  8
26 道路
 10
66.482838
 20
106.092384
  0
VERTEX
  8
26 道路
 10
66.469057
 20
112.849981
  0
VERTEX
  8
26 道路
 10
54.142428
 20
114.668142
  0
VERTEX
  8
26 道路
 10
54.269725
 20
107.768606
  0
SEQEND
  0
POLYLINE
  8
26 道路
 40
0.070556
 41
0.070556
 62
252
 66
1
 10
0
 20
0
 30
0
 70
1
  0
VERTEX
  8
26 道路
 10
58.598860
 20
119.248081
  0
VERTEX
  8
26 道路
 10
58.526340
 20
124.684648
  0
VERTEX
  8
26 道路
 10
54.541028
 20
124.741062
  0
VERTEX
  8
26 道路
 10
53.953291
 20
124.906341
  0
VERTEX
  8
26 道路
 10
54.048721
 20
119.733498
  0
SEQEND
  0
POLYLINE
  8
26 道路
 40
0.070556
 41
0.070556
 62
252
 66
1
 10
0
 20
0
 30
0
 70
1
  0
VERTEX
  8
26 道路
 10
53.664590
 20
82.863940
  0
VERTEX
  8
26 道路
 10
46.621048
 20
82.718642
  0
VERTEX
  8
26 道路
 10
47.609108
 20
61.722031
  0
VERTEX
  8
26 道路
 10
53.393115
 20
61.722031
  0
VERTEX
  8
26 道路
 10
54.044242
 20
62.319069
  0
SEQEND
  0
POLYLINE
  8
26 道路
 40
0.070556
 41
0.070556
 62
252
 66
1
 10
0
 20
0
 30
0
 70
1
  0
VERTEX
  8
26 道路
 10
53.648226
 20
83.745803
  0
VERTEX
  8
26 道路
 10
53.439452
 20
95.034677
  0
VERTEX
  8
26 道路
 10
45.898780
 20
95.992850
  0
VERTEX
  8
26 道路
 10
46.573161
 20
83.599644
  0
SEQEND
  0
POLYLINE
  8
26 道路
 40
0.070556
 41
0.070556
 62
252
 66
1
 10
0
 20
0
 30
0
 70
1
  0
VERTEX
  8
26 道路
 10
53.416197
 20
96.288958
  0
VERTEX
  8
26 道路
 10
53.073753
 20
114.825756
  0
VERTEX
  8
26 道路
 10
44.808572
 20
116.044983
  0
VERTEX
  8
26 道路
 10
45.830394
 20
97.253074
  0
SEQEND
  0
POLYLINE
  8
26 道路
 40
0.070556
 41
0.070556
 62
252
 66
1
 10
0
 20
0
 30
0
 70
1
  0
VERTEX
  8
26 道路
 10
53.056183
 20
115.778503
  0
VERTEX
  8
26 道路
 10
52.890473
 20
124.732535
  0
VERTEX
  8
26 道路
 10
44.317126
 20
125.075496
  0
VERTEX
  8
26 道路
 10
44.756206
 20
117.002725
  0
SEQEND
  0
POLYLINE
  8
26 道路
 40
0.070556
 41
0.070556
 62
252
 66
1
 10
0
 20
0
 30
0
 70
1
  0
VERTEX
  8
26 道路
 10
52.754390
 20
125.575211
  0
VERTEX
  8
26 道路
 10
47.693341
 20
128.892169
  0
VERTEX
  8
26 道路
 10
45.786985
 20
127.691891
  0
VERTEX
  8
26 道路
 10
45.237145
 20
127.189420
  0
VERTEX
  8
26 道路
 10
45.287271
 20
126.839396
  0
VERTEX
  8
26 道路
 10
44.764819
 20
125.794148
  0
SEQEND
  0
POLYLINE
  8
26 道路
 40
0.070556
 41
0.070556
 62
252
 66
1
 10
0
 20
0
 30
0
  0
VERTEX
  8
26 道路
 10
44.229448
 20
131.571006
  0
VERTEX
  8
26 道路
 10
44.875580
 20
129.690920
  0
VERTEX
  8
26 道路
 10
45.203383
 20
127.421104
  0
VERTEX
  8
26 道路
 10
45.757530
 20
127.927020
  0
VERTEX
  8
26 道路
 10
47.502482
 20
129.025668
  0
VERTEX
  8
26 道路
 10
44.433743
 20
131.571006
  0
SEQEND
  0
POLYLINE
  8
26 道路
 40
0.070556
 41
0.070556
 62
252
 66
1
 10
0
 20
0
 30
0
  0
VERTEX
  8
26 道路
 10
43.158533
 20
131.571006
  0
VERTEX
  8
26 道路
 10
42.876550
 20
131.307886
  0
VERTEX
  8
26 道路
 10
43.821202
 20
128.888207
  0
VERTEX
  8
26 道路
 10
44.214117
 20
125.832389
  0
VERTEX
  8
26 道路
 10
44.569137
 20
125.866323
  0
VERTEX
  8
26 道路
 10
45.000637
 20
126.795299
  0
VERTEX
  8
26 道路
 10
44.610995
 20
129.602725
  0
VERTEX
  8
26 道路
 10
43.934890
 20
131.571006
  0
SEQEND
  0
POLYLINE
  8
26 道路
 40
0.070556
 41
0.070556
 62
252
 66
1
 10
0
 20
0
 30
0
  0
VERTEX
  8
26 道路
 10
40.505449
 20
131.571006
  0
VERTEX
  8
26 道路
 10
39.533753
 20
126.367071
  0
VERTEX
  8
26 道路
 10
43.391079
 20
125.979495
  0
VERTEX
  8
26 道路
 10
42.921682
 20
128.783820
  0
VERTEX
  8
26 道路
 10
42.200446
 20
130.896366
  0
VERTEX
  8
26 道路
 10
41.115062
 20
131.571006
  0
SEQEND
  0
POLYLINE
  8
26 道路
 40
0.070556
 41
0.070556
 62
252
 66
1
 10
0
 20
0
 30
0
 70
1
  0
VERTEX
  8
26 道路
 10
30.311175
 20
126.423915
  0
VERTEX
  8
26 道路
 10
30.192318
 20
122.937112
  0
VERTEX
  8
26 道路
 10
39.132053
 20
121.991255
  0
VERTEX
  8
26 道路
 10
39.542022
 20
125.512509
  0
SEQEND
  0
POLYLINE
  8
26 道路
 40
0.070556
 41
0.070556
 62
252
 66
1
 10
0
 20
0
 30
0
 70
1
  0
VERTEX
  8
26 道路
 10
30.174059
 20
122.403636
  0
VERTEX
  8
26 道路
 10
30.044522
 20
118.615557
  0
VERTEX
  8
26 道路
 10
38.633544
 20
117.708630
  0
VERTEX
  8
26 道路
 10
39.070385
 20
121.462257
  0
SEQEND
  0
POLYLINE
  8
26 道路
 40
0.070556
 41
0.070556
 62
252
 66
1
 10
0
 20
0
 30
0
 70
1
  0
VERTEX
  8
26 道路
 10
30.022818
 20
117.624569
  0
VERTEX
  8
26 道路
 10
29.952193
 20
111.361174
  0
VERTEX
  8
26 道路
 10
38.287999
 20
111.158084
  0
VERTEX
  8
26 道路
 10
38.556374
 20
116.723499
  0
SEQEND
  0
POLYLINE
  8
26 道路
 40
0.070556
 41
0.070556
 62
252
 66
1
 10
0
 20
0
 30
0
 70
1
  0
VERTEX
  8
26 道路
 10
29.942547
 20
110.541064
  0
VERTEX
  8
26 道路
 10
29.893626
 20
106.694935
  0
VERTEX
  8
26 道路
 10
38.049425
 20
106.445853
  0
VERTEX
  8
26 道路
 10
38.247347
 20
110.339352
  0
SEQEND
  0
POLYLINE
  8
26 道路
 40
0.070556
 41
0.070556
 62
252
 66
1
 10
0
 20
0
 30
0
 70
1
  0
VERTEX
  8
26 道路
 10
29.883636
 20
105.873791
  0
VERTEX
  8
26 道路
 10
29.789756
 20
97.944337
  0
VERTEX
  8
26 道路
 10
38.018418
 20
97.693016
  0
VERTEX
  8
26 道路
 10
38.024275
 20
105.625398
  0
SEQEND
  0
POLYLINE
  8
26 道路
 40
0.070556
 41
0.070556
 62
252
 66
1
 10
0
 20
0
 30
0
 70
1
  0
VERTEX
  8
26 道路
 10
29.776148
 20
96.770586
  0
VERTEX
  8
26 道路
 10
29.678996
 20
88.563111
  0
VERTEX
  8
26 道路
 10
38.012045
 20
88.336853
  0
VERTEX
  8
26 道路
 10
38.017902
 20
96.518920
  0
SEQEND
  0
POLYLINE
  8
26 道路
 40
0.070556
 41
0.070556
 62
252
 66
1
 10
0
 20
0
 30
0
 70
1
  0
VERTEX
  8
26 道路
 10
29.668660
 20
87.683056
  0
VERTEX
  8
26 道路
 10
29.571508
 20
79.485313
  0
VERTEX
  8
26 道路
 10
38.005327
 20
79.304617
  0
VERTEX
  8
26 道路
 10
38.011184
 20
87.456453
  0
SEQEND
  0
POLYLINE
  8
26 道路
 40
0.070556
 41
0.070556
 62
252
 66
1
 10
0
 20
0
 30
0
 70
1
  0
VERTEX
  8
26 道路
 10
29.561173
 20
78.604913
  0
VERTEX
  8
26 道路
 10
29.464365
 20
70.420349
  0
VERTEX
  8
26 道路
 10
37.999298
 20
70.337063
  0
VERTEX
  8
26 道路
 10
38.005155
 20
78.424131
  0
SEQEND
  0
POLYLINE
  8
26 道路
 40
0.070556
 41
0.070556
 62
252
 66
1
 10
0
 20
0
 30
0
 70
1
  0
VERTEX
  8
26 道路
 10
29.451273
 20
69.303442
  0
VERTEX
  8
26 道路
 10
29.356360
 20
61.307583
  0
VERTEX
  8
26 道路
 10
37.992752
 20
61.223178
  0
VERTEX
  8
26 道路
 10
37.998265
 20
69.220070
  0
SEQEND
  0
POLYLINE
  8
26 道路
 40
0.070556
 41
0.070556
 62
252
 66
1
 10
0
 20
0
 30
0
 70
1
  0
VERTEX
  8
26 道路
 10
29.343441
 20
60.190676
  0
VERTEX
  8
26 道路
 10
29.299688
 20
56.483730
  0
VERTEX
  8
26 道路
 10
37.989135
 20
56.347303
  0
VERTEX
  8
26 道路
 10
37.991719
 20
60.106098
  0
SEQEND
  0
POLYLINE
  8
26 道路
 40
0.070556
 41
0.070556
 62
252
 66
1
 10
0
 20
0
 30
0
 70
1
  0
VERTEX
  8
26 道路
 10
29.292798
 20
55.895993
  0
VERTEX
  8
26 道路
 10
29.253868
 20
52.609351
  0
VERTEX
  8
26 道路
 10
37.986551
 20
52.425726
  0
VERTEX
  8
26 道路
 10
37.988618
 20
55.759222
  0
SEQEND
  0
POLYLINE
  8
26 道路
 40
0.070556
 41
0.070556
 62
252
 66
1
 10
0
 20
0
 30
0
 70
1
  0
VERTEX
  8
26 道路
 10
29.228719
 20
50.494394
  0
VERTEX
  8
26 道路
 10
29.192890
 20
47.451322
  0
VERTEX
  8
26 道路
 10
37.827042
 20
47.201551
  0
VERTEX
  8
26 道路
 10
37.946932
 20
50.310941
  0
SEQEND
  0
POLYLINE
  8
26 道路
 40
0.070556
 41
0.070556
 62
252
 66
1
 10
0
 20
0
 30
0
 70
1
  0
VERTEX
  8
26 道路
 10
29.185827
 20
46.863585
  0
VERTEX
  8
26 道路
 10
29.136734
 20
42.698782
  0
VERTEX
  8
26 道路
 10
37.647552
 20
42.565456
  0
VERTEX
  8
26 道路
 10
37.803788
 20
46.614158
  0
SEQEND
  0
POLYLINE
  8
26 道路
 40
0.070556
 41
0.070556
 62
252
 66
1
 10
0
 20
0
 30
0
 70
1
  0
VERTEX
  8
26 道路
 10
29.126399
 20
41.846460
  0
VERTEX
  8
26 道路
 10
29.068865
 20
36.982644
  0
VERTEX
  8
26 道路
 10
37.427409
 20
36.853452
  0
VERTEX
  8
26 道路
 10
37.614823
 20
41.713479
  0
SEQEND
  0
POLYLINE
  8
26 道路
 40
0.070556
 41
0.070556
 62
252
 66
1
 10
0
 20
0
 30
0
 70
1
  0
VERTEX
  8
26 道路
 10
28.675088
 20
28.665098
  0
VERTEX
  8
26 道路
 10
28.843210
 20
20.943212
  0
VERTEX
  8
26 道路
 10
37.129750
 20
20.884300
  0
VERTEX
  8
26 道路
 10
36.964040
 20
28.502144
  0
SEQEND
  0
POLYLINE
  8
26 道路
 40
0.070556
 41
0.070556
 62
252
 66
1
 10
0
 20
0
 30
0
 70
1
  0
VERTEX
  8
26 道路
 10
28.665098
 20
2.253451
  0
VERTEX
  8
26 道路
 10
28.345391
 20
-5.066045
  0
VERTEX
  8
26 道路
 10
36.601442
 20
-5.136325
  0
VERTEX
  8
26 道路
 10
36.920976
 20
2.183171
  0
SEQEND
  0
POLYLINE
  8
26 道路
 40
0.070556
 41
0.070556
 62
252
 66
1
 10
0
 20
0
 30
0
 70
1
  0
VERTEX
  8
26 道路
 10
28.290441
 20
-6.329714
  0
VERTEX
  8
26 道路
 10
27.952475
 20
-14.071237
  0
VERTEX
  8
26 道路
 10
36.208526
 20
-14.141517
  0
VERTEX
  8
26 道路
 10
36.546492
 20
-6.399650
  0
SEQEND
  0
POLYLINE
  8
26 道路
 40
0.070556
 41
0.070556
 62
252
 66
1
 10
0
 20
0
 30
0
  0
VERTEX
  8
26 道路
 10
27.774707
 20
-18.254987
  0
VERTEX
  8
26 道路
 10
27.902521
 20
-15.214671
  0
VERTEX
  8
26 道路
 10
36.158916
 20
-15.284951
  0
VERTEX
  8
26 道路
 10
36.055563
 20
-18.254987
  0
SEQEND
  0
POLYLINE
  8
26 道路
 40
0.070556
 41
0.070556
 62
252
 66
1
 10
0
 20
0
 30
0
  0
VERTEX
  8
26 道路
 10
119.101146
 20
131.571006
  0
VERTEX
  8
26 道路
 10
119.037067
 20
129.866535
  0
VERTEX
  8
26 道路
 10
98.723106
 20
129.957572
  0
VERTEX
  8
26 道路
 10
96.219367
 20
128.745235
  0
VERTEX
  8
26 道路
 10
95.126059
 20
127.339972
  0
VERTEX
  8
26 道路
 10
94.839425
 20
124.638655
  0
VERTEX
  8
26 道路
 10
82.631997
 20
126.278617
  0
VERTEX
  8
26 道路
 10
69.930711
 20
126.716492
  0
VERTEX
  8
26 道路
 10
68.747141
 20
127.544956
  0
VERTEX
  8
26 道路
 10
68.990539
 20
131.571006
  0
SEQEND
  0
POLYLINE
  8
26 道路
 40
0.070556
 41
0.070556
 62
252
 66
1
 10
0
 20
0
 30
0
 70
1
  0
VERTEX
  8
26 道路
 10
68.593661
 20
18.930230
  0
VERTEX
  8
26 道路
 10
63.813561
 20
19.414269
  0
VERTEX
  8
26 道路
 10
64.385795
 20
11.441579
  0
VERTEX
  8
26 道路
 10
69.134200
 20
11.007494
  0
SEQEND
  0
POLYLINE
  8
26 道路
 40
0.070556
 41
0.070556
 62
252
 66
1
 10
0
 20
0
 30
0
 70
1
  0
VERTEX
  8
26 道路
 10
68.539745
 20
19.719162
  0
VERTEX
  8
26 道路
 10
68.036930
 20
27.093435
  0
VERTEX
  8
26 道路
 10
66.983241
 20
27.983998
  0
VERTEX
  8
26 道路
 10
63.193440
 20
28.059101
  0
VERTEX
  8
26 道路
 10
63.757406
 20
20.203545
  0
SEQEND
  0
POLYLINE
  8
26 道路
 40
0.070556
 41
0.070556
 62
252
 66
1
 10
0
 20
0
 30
0
 70
1
  0
VERTEX
  8
26 道路
 10
67.475376
 20
36.118264
  0
VERTEX
  8
26 道路
 10
67.013041
 20
43.653769
  0
VERTEX
  8
26 道路
 10
61.917713
 20
43.816723
  0
VERTEX
  8
26 道路
 10
62.894748
 20
35.465759
  0
VERTEX
  8
26 道路
 10
66.480082
 20
35.213576
  0
SEQEND
  0
POLYLINE
  8
26 道路
 40
0.070556
 41
0.070556
 62
252
 66
1
 10
0
 20
0
 30
0
  0
VERTEX
  8
26 道路
 10
30.658098
 20
131.571006
  0
VERTEX
  8
26 道路
 10
29.853146
 20
127.368566
  0
VERTEX
  8
26 道路
 10
22.124887
 20
128.281522
  0
VERTEX
  8
26 道路
 10
22.285430
 20
131.571006
  0
SEQEND
  0
POLYLINE
  8
26 道路
 40
0.070556
 41
0.070556
 62
252
 66
1
 10
0
 20
0
 30
0
 70
1
  0
VERTEX
  8
26 道路
 10
22.091125
 20
123.794343
  0
VERTEX
  8
26 道路
 10
29.576848
 20
123.002139
  0
VERTEX
  8
26 道路
 10
29.695704
 20
126.484721
  0
VERTEX
  8
26 道路
 10
22.131088
 20
127.231623
  0
SEQEND
  0
POLYLINE
  8
26 道路
 40
0.070556
 41
0.070556
 62
252
 66
1
 10
0
 20
0
 30
0
 70
1
  0
VERTEX
  8
26 道路
 10
22.084924
 20
123.259575
  0
VERTEX
  8
26 道路
 10
22.041171
 20
119.460644
  0
VERTEX
  8
26 道路
 10
29.429225
 20
118.680584
  0
VERTEX
  8
26 道路
 10
29.558761
 20
122.468662
  0
SEQEND
  0
POLYLINE
  8
26 道路
 40
0.070556
 41
0.070556
 62
252
 66
1
 10
0
 20
0
 30
0
 70
1
  0
VERTEX
  8
26 道路
 10
22.029802
 20
118.468451
  0
VERTEX
  8
26 道路
 10
21.955043
 20
111.563574
  0
VERTEX
  8
26 道路
 10
29.334828
 20
111.388046
  0
VERTEX
  8
26 道路
 10
29.406142
 20
117.689682
  0
SEQEND
  0
POLYLINE
  8
26 道路
 40
0.070556
 41
0.070556
 62
252
 66
1
 10
0
 20
0
 30
0
 70
1
  0
VERTEX
  8
26 道路
 10
21.945396
 20
110.743378
  0
VERTEX
  8
26 道路
 10
21.896304
 20
106.939021
  0
VERTEX
  8
26 道路
 10
29.276261
 20
106.713711
  0
VERTEX
  8
26 道路
 10
29.325182
 20
110.567936
  0
SEQEND
  0
POLYLINE
  8
26 道路
 40
0.070556
 41
0.070556
 62
252
 66
1
 10
0
 20
0
 30
0
 70
1
  0
VERTEX
  8
26 道路
 10
21.886829
 20
106.118050
  0
VERTEX
  8
26 道路
 10
21.795017
 20
98.188424
  0
VERTEX
  8
26 道路
 10
29.172908
 20
97.963113
  0
VERTEX
  8
26 道路
 10
29.266443
 20
105.892653
  0
SEQEND
  0
POLYLINE
  8
26 道路
 40
0.070556
 41
0.070556
 62
252
 66
1
 10
0
 20
0
 30
0
 70
1
  0
VERTEX
  8
26 道路
 10
21.781753
 20
97.014672
  0
VERTEX
  8
26 道路
 10
21.686151
 20
88.780067
  0
VERTEX
  8
26 道路
 10
29.061975
 20
88.579820
  0
VERTEX
  8
26 道路
 10
29.159127
 20
96.789534
  0
SEQEND
  0
POLYLINE
  8
26 道路
 40
0.070556
 41
0.070556
 62
252
 66
1
 10
0
 20
0
 30
0
 70
1
  0
VERTEX
  8
26 道路
 10
21.676333
 20
87.900184
  0
VERTEX
  8
26 道路
 10
21.580903
 20
79.656191
  0
VERTEX
  8
26 道路
 10
28.954487
 20
79.498577
  0
VERTEX
  8
26 道路
 10
29.051295
 20
87.699764
  0
SEQEND
  0
POLYLINE
  8
26 道路
 40
0.070556
 41
0.070556
 62
252
 66
1
 10
0
 20
0
 30
0
 70
1
  0
VERTEX
  8
26 道路
 10
21.570568
 20
78.775791
  0
VERTEX
  8
26 道路
 10
21.474621
 20
70.498380
  0
VERTEX
  8
26 道路
 10
28.847344
 20
70.426464
  0
VERTEX
  8
26 道路
 10
28.944152
 20
78.618177
  0
SEQEND
  0
POLYLINE
  8
26 道路
 40
0.070556
 41
0.070556
 62
252
 66
1
 10
0
 20
0
 30
0
 70
1
  0
VERTEX
  8
26 道路
 10
21.462047
 20
69.381646
  0
VERTEX
  8
26 道路
 10
21.369717
 20
61.385615
  0
VERTEX
  8
26 道路
 10
28.739512
 20
61.313440
  0
VERTEX
  8
26 道路
 10
28.834253
 20
69.309557
  0
SEQEND
  0
POLYLINE
  8
26 道路
 40
0.070556
 41
0.070556
 62
252
 66
1
 10
0
 20
0
 30
0
 70
1
  0
VERTEX
  8
26 道路
 10
21.356626
 20
60.268536
  0
VERTEX
  8
26 道路
 10
21.314251
 20
56.609132
  0
VERTEX
  8
26 道路
 10
28.682323
 20
56.493376
  0
VERTEX
  8
26 道路
 10
28.726076
 20
60.196533
  0
SEQEND
  0
POLYLINE
  8
26 道路
 40
0.070556
 41
0.070556
 62
252
 66
1
 10
0
 20
0
 30
0
 70
1
  0
VERTEX
  8
26 道路
 10
21.307705
 20
56.021051
  0
VERTEX
  8
26 道路
 10
21.298231
 20
55.225229
  0
VERTEX
  8
26 道路
 10
23.868116
 20
52.722695
  0
VERTEX
  8
26 道路
 10
28.636503
 20
52.622442
  0
VERTEX
  8
26 道路
 10
28.675433
 20
55.905639
  0
SEQEND
  0
POLYLINE
  8
26 道路
 40
0.070556
 41
0.070556
 62
252
 66
1
 10
0
 20
0
 30
0
 70
1
  0
VERTEX
  8
26 道路
 10
21.219166
 20
47.990482
  0
VERTEX
  8
26 道路
 10
21.195050
 20
42.823151
  0
VERTEX
  8
26 道路
 10
28.519369
 20
42.708429
  0
VERTEX
  8
26 道路
 10
28.611698
 20
50.507485
  0
VERTEX
  8
26 道路
 10
23.486742
 20
50.585345
  0
SEQEND
  0
POLYLINE
  8
26 道路
 40
0.070556
 41
0.070556
 62
252
 66
1
 10
0
 20
0
 30
0
 70
1
  0
VERTEX
  8
26 道路
 10
21.190744
 20
41.970485
  0
VERTEX
  8
26 道路
 10
21.170245
 20
37.590707
  0
VERTEX
  8
26 道路
 10
21.872705
 20
37.094266
  0
VERTEX
  8
26 道路
 10
28.451845
 20
36.992290
  0
VERTEX
  8
26 道路
 10
28.509378
 20
41.856107
  0
SEQEND
  0
POLYLINE
  8
26 道路
 40
0.070556
 41
0.070556
 62
252
 66
1
 10
0
 20
0
 30
0
 70
1
  0
VERTEX
  8
26 道路
 10
20.757348
 20
28.820817
  0
VERTEX
  8
26 道路
 10
20.652099
 20
21.001779
  0
VERTEX
  8
26 道路
 10
27.964188
 20
20.949413
  0
VERTEX
  8
26 道路
 10
27.795894
 20
28.682323
  0
SEQEND
  0
POLYLINE
  8
26 道路
 40
0.070556
 41
0.070556
 62
252
 66
1
 10
0
 20
0
 30
0
 70
1
  0
VERTEX
  8
26 道路
 10
20.641764
 20
20.230762
  0
VERTEX
  8
26 道路
 10
20.531520
 20
12.050331
  0
VERTEX
  8
26 道路
 10
28.159354
 20
11.985563
  0
VERTEX
  8
26 道路
 10
27.980897
 20
20.178396
  0
SEQEND
  0
POLYLINE
  8
26 道路
 40
0.070556
 41
0.070556
 62
252
 66
1
 10
0
 20
0
 30
0
 70
1
  0
VERTEX
  8
26 道路
 10
20.521185
 20
11.279658
  0
VERTEX
  8
26 道路
 10
20.418521
 20
3.677318
  0
VERTEX
  8
26 道路
 10
27.852394
 20
3.614272
  0
VERTEX
  8
26 道路
 10
28.178647
 20
11.091555
  0
VERTEX
  8
26 道路
 10
28.176235
 20
11.214545
  0
SEQEND
  0
POLYLINE
  8
26 道路
 40
0.070556
 41
0.070556
 62
252
 66
1
 10
0
 20
0
 30
0
 70
1
  0
VERTEX
  8
26 道路
 10
20.400606
 20
2.323732
  0
VERTEX
  8
26 道路
 10
20.301559
 20
-4.997832
  0
VERTEX
  8
26 道路
 10
27.474121
 20
-5.058466
  0
VERTEX
  8
26 道路
 10
27.793483
 20
2.260686
  0
SEQEND
  0
POLYLINE
  8
26 道路
 40
0.070556
 41
0.070556
 62
252
 66
1
 10
0
 20
0
 30
0
 70
1
  0
VERTEX
  8
26 道路
 10
20.284850
 20
-6.261500
  0
VERTEX
  8
26 道路
 10
20.180463
 20
-14.005090
  0
VERTEX
  8
26 道路
 10
27.081377
 20
-14.064002
  0
VERTEX
  8
26 道路
 10
27.418826
 20
-6.322135
  0
SEQEND
  0
POLYLINE
  8
26 道路
 40
0.070556
 41
0.070556
 62
252
 66
1
 10
0
 20
0
 30
0
  0
VERTEX
  8
26 道路
 10
20.119140
 20
-18.254987
  0
VERTEX
  8
26 道路
 10
20.165304
 20
-15.148869
  0
VERTEX
  8
26 道路
 10
27.031423
 20
-15.207436
  0
VERTEX
  8
26 道路
 10
26.903092
 20
-18.254987
  0
SEQEND
  0
POLYLINE
  8
26 道路
 40
0.070556
 41
0.070556
 62
252
 66
1
 10
0
 20
0
 30
0
  0
VERTEX
  8
26 道路
 10
19.940683
 20
131.571006
  0
VERTEX
  8
26 道路
 10
19.900203
 20
128.381775
  0
VERTEX
  8
26 道路
 10
19.710032
 20
128.410111
  0
SEQEND
  0
POLYLINE
  8
26 道路
 40
0.070556
 41
0.070556
 62
252
 66
1
 10
0
 20
0
 30
0
  0
VERTEX
  8
26 道路
 10
19.710032
 20
124.010697
  0
VERTEX
  8
26 道路
 10
19.845253
 20
123.999586
  0
VERTEX
  8
26 道路
 10
19.890729
 20
127.602490
  0
VERTEX
  8
26 道路
 10
19.710032
 20
127.629448
  0
SEQEND
  0
POLYLINE
  8
26 道路
 40
0.070556
 41
0.070556
 62
252
 66
1
 10
0
 20
0
 30
0
  0
VERTEX
  8
26 道路
 10
19.710032
 20
119.568563
  0
VERTEX
  8
26 道路
 10
19.789442
 20
119.561328
  0
VERTEX
  8
26 道路
 10
19.837157
 20
123.363618
  0
VERTEX
  8
26 道路
 10
19.710032
 20
123.374039
  0
SEQEND
  0
POLYLINE
  8
26 道路
 40
0.070556
 41
0.070556
 62
252
 66
1
 10
0
 20
0
 30
0
  0
VERTEX
  8
26 道路
 10
19.710032
 20
113.267788
  0
VERTEX
  8
26 道路
 10
19.779451
 20
118.776616
  0
VERTEX
  8
26 道路
 10
19.710032
 20
118.782904
  0
SEQEND
  0
POLYLINE
  8
29 川・池
 40
0.035278
 41
0.035278
 62
150
 66
1
 10
0
 20
0
 30
0
  0
VERTEX
  8
29 川・池
 10
169.718014
 20
67.519646
  0
VERTEX
  8
29 川・池
 10
163.175219
 20
66.560009
  0
VERTEX
  8
29 川・池
 10
164.143125
 20
58.718577
  0
VERTEX
  8
29 川・池
 10
166.176089
 20
58.040923
  0
VERTEX
  8
29 川・池
 10
166.176089
 20
50.780338
  0
VERTEX
  8
29 川・池
 10
169.718014
 20
50.629442
  0
SEQEND
  0
POLYLINE
  8
29 川・池
 40
0.035278
 41
0.035278
 62
150
 66
1
 10
0
 20
0
 30
0
  0
VERTEX
  8
29 川・池
 10
169.718014
 20
107.926392
  0
VERTEX
  8
29 川・池
 10
164.820780
 20
107.025752
  0
VERTEX
  8
29 川・池
 10
164.433721
 20
107.606599
  0
VERTEX
  8
29 川・池
 10
158.915677
 20
104.702451
  0
VERTEX
  8
29 川・池
 10
159.496523
 20
103.637479
  0
VERTEX
  8
29 川・池
 10
155.430941
 20
101.701324
  0
VERTEX
  8
29 川・池
 10
158.818869
 20
93.666191
  0
VERTEX
  8
29 川・池
 10
158.141387
 20
93.666191
  0
VERTEX
  8
29 川・池
 10
159.399716
 20
87.760829
  0
VERTEX
  8
29 川・池
 10
165.982645
 20
89.406648
  0
VERTEX
  8
29 川・池
 10
166.757108
 20
80.597225
  0
VERTEX
  8
29 川・池
 10
167.725186
 20
80.693860
  0
VERTEX
  8
29 川・池
 10
168.499648
 20
73.530084
  0
VERTEX
  8
29 川・池
 10
169.718014
 20
73.606221
  0
SEQEND
  0
POLYLINE
  8
29 川・池
 40
0.035278
 41
0.035278
 62
150
 66
1
 10
0
 20
0
 30
0
  0
VERTEX
  8
29 川・池
 10
169.718014
 20
114.902840
  0
VERTEX
  8
29 川・池
 10
169.274110
 20
115.157693
  0
VERTEX
  8
29 川・池
 10
168.886707
 20
114.770462
  0
VERTEX
  8
29 川・池
 10
160.077370
 20
113.318345
  0
VERTEX
  8
29 川・池
 10
148.073204
 20
103.927817
  0
VERTEX
  8
29 川・池
 10
155.043365
 20
79.532167
  0
VERTEX
  8
29 川・池
 10
159.980390
 20
80.790668
  0
VERTEX
  8
29 川・池
 10
162.400757
 20
70.045003
  0
VERTEX
  8
29 川・池
 10
169.718014
 20
70.878549
  0
SEQEND
  0
POLYLINE
  8
30 公園・緑地
 40
0.105834
 41
0.105834
 62
3
 66
1
 10
0
 20
0
 30
0
 70
1
  0
VERTEX
  8
30 公園・緑地
 10
109.998802
 20
8.510817
  0
VERTEX
  8
30 公園・緑地
 10
114.030623
 20
8.233486
  0
VERTEX
  8
30 公園・緑地
 10
114.673482
 20
16.028408
  0
VERTEX
  8
30 公園・緑地
 10
109.164395
 20
16.397380
  0
VERTEX
  8
30 公園・緑地
 10
108.993345
 20
12.803434
  0
VERTEX
  8
30 公園・緑地
 10
110.286814
 20
12.450654
  0
SEQEND
  0
POLYLINE
  8
30 公園・緑地
 40
0.105834
 41
0.105834
 62
3
 66
1
 10
0
 20
0
 30
0
  0
VERTEX
  8
30 公園・緑地
 10
169.718014
 20
25.017063
  0
VERTEX
  8
30 公園・緑地
 10
157.584311
 20
24.453097
  0
VERTEX
  8
30 公園・緑地
 10
156.553877
 20
23.209754
  0
VERTEX
  8
30 公園・緑地
 10
155.350153
 20
8.442949
  0
VERTEX
  8
30 公園・緑地
 10
164.027025
 20
7.864514
  0
VERTEX
  8
30 公園・緑地
 10
163.368491
 20
-2.892865
  0
VERTEX
  8
30 公園・緑地
 10
169.718014
 20
-3.515398
  0
SEQEND
  0
POLYLINE
  8
30 公園・緑地
 40
0.105834
 41
0.105834
 62
3
 66
1
 10
0
 20
0
 30
0
 70
1
  0
VERTEX
  8
30 公園・緑地
 10
48.301921
 20
82.753351
  0
VERTEX
  8
30 公園・緑地
 10
46.621048
 20
82.718642
  0
VERTEX
  8
30 公園・緑地
 10
47.609108
 20
61.722031
  0
VERTEX
  8
30 公園・緑地
 10
48.835570
 20
61.722031
  0
SEQEND
  0
POLYLINE
  8
30 公園・緑地
 40
0.105834
 41
0.105834
 62
3
 66
1
 10
0
 20
0
 30
0
 70
1
  0
VERTEX
  8
30 公園・緑地
 10
48.279528
 20
83.634957
  0
VERTEX
  8
30 公園・緑地
 10
47.972568
 20
95.729385
  0
VERTEX
  8
30 公園・緑地
 10
45.898780
 20
95.992850
  0
VERTEX
  8
30 公園・緑地
 10
46.573161
 20
83.599644
  0
SEQEND
  0
POLYLINE
  8
30 公園・緑地
 40
0.105834
 41
0.105834
 62
3
 66
1
 10
0
 20
0
 30
0
 70
1
  0
VERTEX
  8
30 公園・緑地
 10
44.317126
 20
125.075496
  0
VERTEX
  8
30 公園・緑地
 10
44.756206
 20
117.002812
  0
VERTEX
  8
30 公園・緑地
 10
47.442709
 20
116.606537
  0
VERTEX
  8
30 公園・緑地
 10
47.256845
 20
123.928961
  0
VERTEX
  8
30 公園・緑地
 10
47.444948
 20
124.950266
  0
SEQEND
  0
POLYLINE
  8
30 公園・緑地
 40
0.105834
 41
0.105834
 62
3
 66
1
 10
0
 20
0
 30
0
 70
1
  0
VERTEX
  8
30 公園・緑地
 10
93.000766
 20
73.532667
  0
VERTEX
  8
30 公園・緑地
 10
81.359026
 20
74.403248
  0
VERTEX
  8
30 公園・緑地
 10
81.359026
 20
65.288071
  0
VERTEX
  8
30 公園・緑地
 10
93.000766
 20
64.759935
  0
SEQEND
  0
POLYLINE
  8
30 公園・緑地
 40
0.105834
 41
0.105834
 62
3
 66
1
 10
0
 20
0
 30
0
 70
1
  0
VERTEX
  8
30 公園・緑地
 10
44.808572
 20
116.044983
  0
VERTEX
  8
30 公園・緑地
 10
45.830394
 20
97.253074
  0
VERTEX
  8
30 公園・緑地
 10
47.940873
 20
96.984872
  0
VERTEX
  8
30 公園・緑地
 10
47.466825
 20
115.652842
  0
SEQEND
  0
POLYLINE
  8
30 公園・緑地
 40
0.105834
 41
0.105834
 62
3
 66
1
 10
0
 20
0
 30
0
 70
1
  0
VERTEX
  8
30 公園・緑地
 10
89.690870
 20
-5.901830
  0
VERTEX
  8
30 公園・緑地
 10
78.111142
 20
-5.135292
  0
VERTEX
  8
30 公園・緑地
 10
77.772831
 20
-10.884159
  0
VERTEX
  8
30 公園・緑地
 10
89.196668
 20
-11.565947
  0
SEQEND
  0
POLYLINE
  8
30 公園・緑地
 40
0.105834
 41
0.105834
 62
3
 66
1
 10
0
 20
0
 30
0
 70
1
  0
VERTEX
  8
30 公園・緑地
 10
52.474991
 20
61.244365
  0
VERTEX
  8
30 公園・緑地
 10
52.733892
 20
52.298257
  0
VERTEX
  8
30 公園・緑地
 10
54.229245
 20
52.314794
  0
VERTEX
  8
30 公園・緑地
 10
54.075593
 20
60.620282
  0
VERTEX
  8
30 公園・緑地
 10
53.399316
 20
61.244365
  0
SEQEND
  0
POLYLINE
  8
30 公園・緑地
 40
0.105834
 41
0.105834
 62
3
 66
1
 10
0
 20
0
 30
0
  0
VERTEX
  8
30 公園・緑地
 10
169.718014
 20
116.091234
  0
VERTEX
  8
30 公園・緑地
 10
169.711640
 20
116.074525
  0
VERTEX
  8
30 公園・緑地
 10
168.736672
 20
115.807356
  0
VERTEX
  8
30 公園・緑地
 10
168.207502
 20
115.101796
  0
VERTEX
  8
30 公園・緑地
 10
160.269952
 20
113.867066
  0
VERTEX
  8
30 公園・緑地
 10
147.139060
 20
103.926525
  0
VERTEX
  8
30 公園・緑地
 10
147.834457
 20
98.579875
  0
VERTEX
  8
30 公園・緑地
 10
154.297669
 20
74.290765
  0
VERTEX
  8
30 公園・緑地
 10
155.339645
 20
73.798286
  0
VERTEX
  8
30 公園・緑地
 10
156.104805
 20
73.249823
  0
VERTEX
  8
30 公園・緑地
 10
156.599180
 20
72.452795
  0
VERTEX
  8
30 公園・緑地
 10
159.035222
 20
63.037376
  0
VERTEX
  8
30 公園・緑地
 10
158.904997
 20
61.911856
  0
VERTEX
  8
30 公園・緑地
 10
158.506052
 20
60.985464
  0
VERTEX
  8
30 公園・緑地
 10
156.202819
 20
58.284493
  0
VERTEX
  8
30 公園・緑地
 10
158.177388
 20
50.393452
  0
VERTEX
  8
30 公園・緑地
 10
169.718014
 20
43.006087
  0
SEQEND
  0
POLYLINE
  8
30 公園・緑地
 40
0.105834
 41
0.105834
 62
3
 66
1
 10
0
 20
0
 30
0
  0
VERTEX
  8
30 公園・緑地
 10
169.718014
 20
-8.743018
  0
VERTEX
  8
30 公園・緑地
 10
161.941351
 20
-8.032980
  0
VERTEX
  8
30 公園・緑地
 10
161.768578
 20
-10.134157
  0
VERTEX
  8
30 公園・緑地
 10
169.718014
 20
-10.990613
  0
SEQEND
  0
POLYLINE
  8
30 公園・緑地
 40
0.105834
 41
0.105834
 62
3
 66
1
 10
0
 20
0
 30
0
 70
1
  0
VERTEX
  8
30 公園・緑地
 10
151.520044
 20
77.002073
  0
VERTEX
  8
30 公園・緑地
 10
151.745871
 20
76.098935
  0
VERTEX
  8
30 公園・緑地
 10
152.740993
 20
75.709120
  0
VERTEX
  8
30 公園・緑地
 10
152.340326
 20
77.213775
  0
SEQEND
  0
POLYLINE
  8
30 公園・緑地
 40
0.105834
 41
0.105834
 62
3
 66
1
 10
0
 20
0
 30
0
 70
1
  0
VERTEX
  8
30 公園・緑地
 10
157.572598
 20
62.197112
  0
VERTEX
  8
30 公園・緑地
 10
157.673367
 20
63.281635
  0
VERTEX
  8
30 公園・緑地
 10
155.665553
 20
71.622178
  0
VERTEX
  8
30 公園・緑地
 10
155.281422
 20
72.319297
  0
VERTEX
  8
30 公園・緑地
 10
154.712978
 20
72.826160
  0
VERTEX
  8
30 公園・緑地
 10
153.921290
 20
73.232253
  0
VERTEX
  8
30 公園・緑地
 10
153.915089
 20
73.218128
  0
VERTEX
  8
30 公園・緑地
 10
152.291061
 20
73.920243
  0
VERTEX
  8
30 公園・緑地
 10
155.789577
 20
59.937804
  0
VERTEX
  8
30 公園・緑地
 10
157.347632
 20
61.568378
  0
SEQEND
  0
POLYLINE
  8
30 公園・緑地
 40
0.105834
 41
0.105834
 62
3
 66
1
 10
0
 20
0
 30
0
 70
1
  0
VERTEX
  8
30 公園・緑地
 10
129.390678
 20
-1.702577
  0
VERTEX
  8
30 公園・緑地
 10
128.709234
 20
-10.504507
  0
VERTEX
  8
30 公園・緑地
 10
133.308121
 20
-10.670906
  0
VERTEX
  8
30 公園・緑地
 10
134.920435
 20
-9.882663
  0
VERTEX
  8
30 公園・緑地
 10
135.099065
 20
-6.129208
  0
VERTEX
  8
30 公園・緑地
 10
132.629605
 20
-5.893906
  0
VERTEX
  8
30 公園・緑地
 10
132.809957
 20
-1.927543
  0
SEQEND
  0
POLYLINE
  8
30 公園・緑地
 40
0.105834
 41
0.105834
 62
3
 66
1
 10
0
 20
0
 30
0
 70
1
  0
VERTEX
  8
30 公園・緑地
 10
128.611737
 20
-11.759563
  0
VERTEX
  8
30 公園・緑地
 10
133.217514
 20
-12.243946
  0
VERTEX
  8
30 公園・緑地
 10
134.863935
 20
-11.068128
  0
VERTEX
  8
30 公園・緑地
 10
134.886329
 20
-10.594769
  0
VERTEX
  8
30 公園・緑地
 10
133.781824
 20
-11.134963
  0
VERTEX
  8
30 公園・緑地
 10
128.673060
 20
-10.969942
  0
SEQEND
  0
POLYLINE
  8
30 公園・緑地
 40
0.105834
 41
0.105834
 62
3
 66
1
 10
0
 20
0
 30
0
 70
1
  0
VERTEX
  8
30 公園・緑地
 10
146.094673
 20
103.135526
  0
VERTEX
  8
30 公園・緑地
 10
146.002688
 20
103.065934
  0
VERTEX
  8
30 公園・緑地
 10
145.865228
 20
99.604453
  0
VERTEX
  8
30 公園・緑地
 10
151.353989
 20
77.665947
  0
VERTEX
  8
30 公園・緑地
 10
152.164625
 20
77.875065
  0
VERTEX
  8
30 公園・緑地
 10
146.717378
 20
98.344746
  0
SEQEND
  0
POLYLINE
  8
30 公園・緑地
 40
0.105834
 41
0.105834
 62
3
 66
1
 10
0
 20
0
 30
0
  0
VERTEX
  8
30 公園・緑地
 10
169.718014
 20
123.825349
  0
VERTEX
  8
30 公園・緑地
 10
168.089851
 20
123.706148
  0
VERTEX
  8
30 公園・緑地
 10
168.499648
 20
118.701771
  0
VERTEX
  8
30 公園・緑地
 10
169.718014
 20
118.089057
  0
SEQEND
  0
POLYLINE
  8
31 地形
 40
0.035278
 41
0.035278
 66
1
 10
0
 20
0
 30
0
  0
VERTEX
  8
31 地形
 10
61.979036
 20
-18.254987
  0
VERTEX
  8
31 地形
 10
61.867759
 20
2.484619
  0
VERTEX
  8
31 地形
 10
60.750680
 20
27.502371
  0
VERTEX
  8
31 地形
 10
60.280249
 20
32.441291
  0
VERTEX
  8
31 地形
 10
59.174022
 20
36.477245
  0
VERTEX
  8
31 地形
 10
54.591327
 20
42.498621
  0
VERTEX
  8
31 地形
 10
53.638752
 20
43.749888
  0
VERTEX
  8
31 地形
 10
52.929747
 20
45.546516
  0
VERTEX
  8
31 地形
 10
50.667166
 20
123.634921
  0
VERTEX
  8
31 地形
 10
51.463505
 20
125.608542
  0
VERTEX
  8
31 地形
 10
54.463169
 20
127.733146
  0
VERTEX
  8
31 地形
 10
60.545006
 20
130.161351
  0
VERTEX
  8
31 地形
 10
69.008109
 20
131.311503
  0
VERTEX
  8
31 地形
 10
77.247451
 20
131.382214
  0
VERTEX
  8
31 地形
 10
89.308806
 20
131.011519
  0
VERTEX
  8
31 地形
 10
115.612276
 20
130.455391
  0
VERTEX
  8
31 地形
 10
124.376654
 20
130.836680
  0
VERTEX
  8
31 地形
 10
126.419781
 20
131.571006
  0
SEQEND
  0
POLYLINE
  8
31 地形
 40
0.035278
 41
0.035278
 66
1
 10
0
 20
0
 30
0
  0
VERTEX
  8
31 地形
 10
59.162308
 20
-18.254987
  0
VERTEX
  8
31 地形
 10
59.016235
 20
2.454991
  0
VERTEX
  8
31 地形
 10
57.605115
 20
27.267414
  0
VERTEX
  8
31 地形
 10
57.017034
 20
32.206334
  0
VERTEX
  8
31 地形
 10
55.689803
 20
35.280412
  0
VERTEX
  8
31 地形
 10
51.960635
 20
40.555231
  0
VERTEX
  8
31 地形
 10
50.342808
 20
42.934084
  0
VERTEX
  8
31 地形
 10
49.226246
 20
46.328558
  0
VERTEX
  8
31 地形
 10
47.256845
 20
123.928961
  0
VERTEX
  8
31 地形
 10
47.732443
 20
126.507287
  0
VERTEX
  8
31 地形
 10
48.723259
 20
128.412092
  0
VERTEX
  8
31 地形
 10
51.308819
 20
131.324594
  0
VERTEX
  8
31 地形
 10
50.967925
 20
131.571006
  0
SEQEND
  0
POLYLINE
  8
32 海・河川
 40
0.035278
 41
0.035278
 62
150
 66
1
 10
0
 20
0
 30
0
  0
VERTEX
  8
32 海・河川
 10
126.419781
 20
131.571006
  0
VERTEX
  8
32 海・河川
 10
124.376654
 20
130.836680
  0
VERTEX
  8
32 海・河川
 10
115.612276
 20
130.455391
  0
VERTEX
  8
32 海・河川
 10
89.308806
 20
131.011519
  0
VERTEX
  8
32 海・河川
 10
77.247451
 20
131.382214
  0
VERTEX
  8
32 海・河川
 10
69.008109
 20
131.311503
  0
VERTEX
  8
32 海・河川
 10
60.545006
 20
130.161351
  0
VERTEX
  8
32 海・河川
 10
54.463169
 20
127.733146
  0
VERTEX
  8
32 海・河川
 10
51.463505
 20
125.608542
  0
VERTEX
  8
32 海・河川
 10
50.667166
 20
123.634921
  0
VERTEX
  8
32 海・河川
 10
52.929747
 20
45.546516
  0
VERTEX
  8
32 海・河川
 10
53.638752
 20
43.749888
  0
VERTEX
  8
32 海・河川
 10
54.591327
 20
42.498621
  0
VERTEX
  8
32 海・河川
 10
59.174022
 20
36.477245
  0
VERTEX
  8
32 海・河川
 10
60.280249
 20
32.441291
  0
VERTEX
  8
32 海・河川
 10
60.750680
 20
27.502371
  0
VERTEX
  8
32 海・河川
 10
61.867759
 20
2.484619
  0
VERTEX
  8
32 海・河川
 10
61.979036
 20
-18.254987
  0
SEQEND
  0
POLYLINE
  8
32 海・河川
 40
0.035278
 41
0.035278
 62
150
 66
1
 10
0
 20
0
 30
0
  0
VERTEX
  8
32 海・河川
 10
59.162308
 20
-18.254987
  0
VERTEX
  8
32 海・河川
 10
59.016235
 20
2.454991
  0
VERTEX
  8
32 海・河川
 10
57.605115
 20
27.267414
  0
VERTEX
  8
32 海・河川
 10
57.017034
 20
32.206334
  0
VERTEX
  8
32 海・河川
 10
55.689803
 20
35.280412
  0
VERTEX
  8
32 海・河川
 10
51.960635
 20
40.555231
  0
VERTEX
  8
32 海・河川
 10
50.342808
 20
42.934084
  0
VERTEX
  8
32 海・河川
 10
49.226246
 20
46.328558
  0
VERTEX
  8
32 海・河川
 10
47.256845
 20
123.928961
  0
VERTEX
  8
32 海・河川
 10
47.732443
 20
126.507287
  0
VERTEX
  8
32 海・河川
 10
48.723259
 20
128.412092
  0
VERTEX
  8
32 海・河川
 10
51.308819
 20
131.324594
  0
VERTEX
  8
32 海・河川
 10
50.967925
 20
131.571006
  0
SEQEND
  0
ENDSEC
  0
EOF
