  0
SECTION
  2
HEADER
  9
$ACADVER
  1
AC1009
  9
$LUNITS
 70
2
  9
$LUPREC
 70
4
  9
$LTSCALE
 40
1.0
  9
$EXTMIN
 10
-459.828748
 20
93.672736
 30
0
  9
$EXTMAX
 10
-255.921908
 20
373.780056
 30
0
  0
ENDSEC
  0
SECTION
  2
TABLES
  0
TABLE
  2
LTYPE
 70
256
  0
LTYPE
  2
AIGENLINE001
 70
64
  3
generate AI->DXF Converter
 72
65
 73
2
 40
0.705560
 49
0.352780
 49
-0.352780
  0
LTYPE
  2
AIGENLINE002
 70
64
  3
generate AI->DXF Converter
 72
65
 73
2
 40
1.058340
 49
0.705560
 49
-0.352780
  0
LTYPE
  2
AIGENLINE003
 70
64
  3
generate AI->DXF Converter
 72
65
 73
2
 40
1.411120
 49
0.705560
 49
-0.705560
  0
LTYPE
  2
AIGENLINE004
 70
64
  3
generate AI->DXF Converter
 72
65
 73
2
 40
2.116680
 49
1.763900
 49
-0.352780
  0
ENDTAB
  0
TABLE
  2
LAYER
 70
32
  0
LAYER
  2
01 グリッド
 70
64
 62
-7
  6
CONTINUOUS
  0
LAYER
  2
02 市区名
 70
64
 62
7
  6
CONTINUOUS
  0
LAYER
  2
03 施設名・公園名
 70
64
 62
7
  6
CONTINUOUS
  0
LAYER
  2
04 通称名・高速名
 70
64
 62
7
  6
CONTINUOUS
  0
LAYER
  2
05 町名
 70
64
 62
7
  6
CONTINUOUS
  0
LAYER
  2
06 駅名・鉄道名
 70
64
 62
7
  6
CONTINUOUS
  0
LAYER
  2
07 街区符号
 70
64
 62
7
  6
CONTINUOUS
  0
LAYER
  2
08 地下鉄
 70
64
 62
7
  6
CONTINUOUS
  0
LAYER
  2
09 鉄道地下
 70
64
 62
7
  6
CONTINUOUS
  0
LAYER
  2
10 都道府県界
 70
64
 62
7
  6
CONTINUOUS
  0
LAYER
  2
11 市界
 70
64
 62
7
  6
CONTINUOUS
  0
LAYER
  2
12 区界
 70
64
 62
7
  6
CONTINUOUS
  0
LAYER
  2
13 町界
 70
64
 62
7
  6
CONTINUOUS
  0
LAYER
  2
14 公・官庁施設
 70
64
 62
7
  6
CONTINUOUS
  0
LAYER
  2
15 病院
 70
64
 62
7
  6
CONTINUOUS
  0
LAYER
  2
16 学校
 70
64
 62
7
  6
CONTINUOUS
  0
LAYER
  2
17 その他施設
 70
64
 62
7
  6
CONTINUOUS
  0
LAYER
  2
18 高速分離帯
 70
64
 62
7
  6
CONTINUOUS
  0
LAYER
  2
19 鉄道駅
 70
64
 62
7
  6
CONTINUOUS
  0
LAYER
  2
20 鉄道
 70
64
 62
7
  6
CONTINUOUS
  0
LAYER
  2
21 デッキ・歩道橋
 70
64
 62
7
  6
CONTINUOUS
  0
LAYER
  2
22 一般道トンネル
 70
64
 62
7
  6
CONTINUOUS
  0
LAYER
  2
23 園路・他敷地道
 70
64
 62
7
  6
CONTINUOUS
  0
LAYER
  2
24 立体交差
 70
64
 62
7
  6
CONTINUOUS
  0
LAYER
  2
25 分離帯等
 70
64
 62
7
  6
CONTINUOUS
  0
LAYER
  2
26 道路
 70
64
 62
7
  6
CONTINUOUS
  0
LAYER
  2
27 鉄道下駅
 70
64
 62
7
  6
CONTINUOUS
  0
LAYER
  2
28 鉄道下
 70
64
 62
7
  6
CONTINUOUS
  0
LAYER
  2
29 川・池
 70
64
 62
7
  6
CONTINUOUS
  0
LAYER
  2
30 公園・緑地
 70
64
 62
7
  6
CONTINUOUS
  0
LAYER
  2
31 地形
 70
64
 62
7
  6
CONTINUOUS
  0
LAYER
  2
32 海・河川
 70
64
 62
7
  6
CONTINUOUS
  0
ENDTAB
  0
TABLE
  2
STYLE
 70
6
  0
STYLE
  2
STANDARD
 70
0
 40
0
 50
0
 71
0
 41
0
 42
0
  3
TXT
  4
BIGFONT
  0
ENDTAB
  0
ENDSEC
  0
SECTION
  2
BLOCKS
  0
ENDSEC
  0
SECTION
  2
ENTITIES
  0
POLYLINE
  8
01 グリッド
  6
AIGENLINE001
 40
0.070556
 41
0.070556
 62
251
 66
1
 10
0
 20
0
 30
0
 70
128
  0
VERTEX
  8
01 グリッド
 10
-284.265232
 20
157.824263
  0
VERTEX
  8
01 グリッド
 10
-284.265232
 20
307.860495
  0
SEQEND
  0
POLYLINE
  8
01 グリッド
  6
AIGENLINE001
 40
0.070556
 41
0.070556
 62
251
 66
1
 10
0
 20
0
 30
0
 70
128
  0
VERTEX
  8
01 グリッド
 10
-334.359992
 20
157.824263
  0
VERTEX
  8
01 グリッド
 10
-334.359992
 20
307.860495
  0
SEQEND
  0
POLYLINE
  8
01 グリッド
  6
AIGENLINE001
 40
0.070556
 41
0.070556
 62
251
 66
1
 10
0
 20
0
 30
0
 70
128
  0
VERTEX
  8
01 グリッド
 10
-384.265615
 20
157.824263
  0
VERTEX
  8
01 グリッド
 10
-384.265615
 20
307.860495
  0
SEQEND
  0
POLYLINE
  8
01 グリッド
  6
AIGENLINE001
 40
0.070556
 41
0.070556
 62
251
 66
1
 10
0
 20
0
 30
0
 70
128
  0
VERTEX
  8
01 グリッド
 10
-284.247662
 20
307.851538
  0
VERTEX
  8
01 グリッド
 10
-434.355552
 20
307.851538
  0
SEQEND
  0
POLYLINE
  8
01 グリッド
  6
AIGENLINE001
 40
0.070556
 41
0.070556
 62
251
 66
1
 10
0
 20
0
 30
0
 70
128
  0
VERTEX
  8
01 グリッド
 10
-284.247662
 20
257.828781
  0
VERTEX
  8
01 グリッド
 10
-434.355552
 20
257.828781
  0
SEQEND
  0
POLYLINE
  8
01 グリッド
  6
AIGENLINE001
 40
0.070556
 41
0.070556
 62
251
 66
1
 10
0
 20
0
 30
0
 70
128
  0
VERTEX
  8
01 グリッド
 10
-284.247662
 20
207.851155
  0
VERTEX
  8
01 グリッド
 10
-434.355552
 20
207.851155
  0
SEQEND
  0
POLYLINE
  8
01 グリッド
  6
AIGENLINE001
 40
0.070556
 41
0.070556
 62
251
 66
1
 10
0
 20
0
 30
0
 70
128
  0
VERTEX
  8
01 グリッド
 10
-284.247662
 20
157.828053
  0
VERTEX
  8
01 グリッド
 10
-434.355552
 20
157.828053
  0
SEQEND
  0
POLYLINE
  8
01 グリッド
 40
0.352780
 41
0.352780
 66
1
 10
0
 20
0
 30
0
 70
1
  0
VERTEX
  8
01 グリッド
 10
-434.355552
 20
157.824263
  0
VERTEX
  8
01 グリッド
 10
-284.247662
 20
157.824263
  0
VERTEX
  8
01 グリッド
 10
-284.247662
 20
307.860495
  0
VERTEX
  8
01 グリッド
 10
-434.355552
 20
307.860495
  0
SEQEND
  0
TEXT
  8
03 施設名・公園名
 10
-346.597393
 20
204.488031
 11
-346.597393
 21
204.488031
 40
0.988142
 41
0.500000
 72
1
  1
横浜公園
  0
TEXT
  8
03 施設名・公園名
 10
-355.416893
 20
198.402576
 11
-355.416893
 21
198.402576
 40
0.988142
 41
0.500000
 72
1
  1
横浜スタジアム
  0
TEXT
  8
03 施設名・公園名
 10
-362.942751
 20
177.500361
 11
-362.942751
 21
177.500361
 40
0.988142
 41
0.500000
 72
1
  1
横浜公園
  0
TEXT
  8
03 施設名・公園名
 10
-375.364810
 20
202.286601
 11
-375.364810
 21
202.286601
 40
0.988142
 41
0.500000
 72
1
  1
横浜市役所
  0
TEXT
  8
03 施設名・公園名
 10
-341.361848
 20
253.312921
 11
-341.361848
 21
253.312921
 40
0.988142
 41
0.500000
 72
1
  1
神奈川県庁
  0
TEXT
  8
03 施設名・公園名
 10
-323.605370
 20
297.410421
 11
-323.605370
 21
297.410421
 40
0.988142
 41
0.500000
 72
1
  1
赤レンガパーク
  0
TEXT
  8
03 施設名・公園名
 10
-416.739290
 20
174.290201
 11
-416.739290
 21
174.290201
 40
0.988142
 41
0.500000
 72
1
  1
大通り公園
  0
TEXT
  8
03 施設名・公園名
 10
-336.236547
 20
212.769404
 11
-336.236547
 21
212.769404
 40
0.988142
 41
0.500000
 72
1
  1
中区役所
  0
TEXT
  8
03 施設名・公園名
 10
-324.291292
 20
240.730664
 11
-324.291292
 21
240.730664
 40
0.988142
 41
0.500000
 72
1
  1
県庁分庁舎
  0
TEXT
  8
03 施設名・公園名
 10
-419.443362
 20
192.510048
 11
-419.443362
 21
192.510048
 40
0.988142
 41
0.500000
 72
1
  1
吉田中学校
  0
TEXT
  8
03 施設名・公園名
 10
-334.861256
 20
181.554575
 11
-334.861256
 21
181.554575
 40
0.988142
 41
0.500000
 72
1
  1
みなと総合高校
  0
TEXT
  8
03 施設名・公園名
 10
-326.981240
 20
176.991862
 11
-326.981240
 21
176.991862
 40
0.988142
 41
0.500000
 72
1
  1
港中学校
  0
TEXT
  8
03 施設名・公園名
 10
-320.893373
 20
168.991611
 11
-320.893373
 21
168.991611
 40
0.988142
 41
0.500000
 72
1
  1
横浜中央病院
  0
TEXT
  8
04 通称名・高速名
 10
-408.060006
 20
268.337766
 11
-408.060006
 21
268.337766
 40
1.808905
 41
0.500000
 72
1
  1
本町通り
  0
TEXT
  8
04 通称名・高速名
 10
-392.603488
 20
248.142489
 11
-392.603488
 21
248.142489
 40
1.808736
 41
0.500000
 50
63.004443
 72
1
  1
馬車道
  0
TEXT
  8
04 通称名・高速名
 10
-382.924431
 20
242.508345
 11
-382.924431
 21
242.508345
 40
1.808905
 41
0.500000
 50
59.036236
 72
1
  1
関内大通り
  0
TEXT
  8
04 通称名・高速名
 10
-340.558447
 20
223.642194
 11
-340.558447
 21
223.642194
 40
1.808756
 41
0.500000
 50
57.675142
 72
1
  1
日本大通り
  0
TEXT
  8
04 通称名・高速名
 10
-362.647160
 20
297.163751
 11
-362.647160
 21
297.163751
 40
1.808905
 41
0.500000
 50
57.234818
 72
1
  1
万国橋通り
  0
TEXT
  8
05 町名
 10
-430.134594
 20
211.782033
 11
-430.134594
 21
211.782033
 40
1.354697
 41
0.500000
 62
251
 72
1
  1
福富町東通
  0
TEXT
  8
05 町名
 10
-430.459124
 20
162.096553
 11
-430.459124
 21
162.096553
 40
1.354697
 41
0.500000
 62
251
 72
1
  1
山吹町
  0
TEXT
  8
05 町名
 10
-408.252932
 20
257.775726
 11
-408.252932
 21
257.775726
 40
1.354697
 41
0.500000
 62
251
 72
1
  1
相生町六丁目
  0
TEXT
  8
05 町名
 10
-380.339559
 20
293.217713
 11
-380.339559
 21
293.217713
 40
1.354697
 41
0.500000
 62
251
 72
1
  1
海岸通五丁目
  0
TEXT
  8
05 町名
 10
-365.978933
 20
281.606290
 11
-365.978933
 21
281.606290
 40
1.354697
 41
0.500000
 62
251
 72
1
  1
海岸通四丁目
  0
TEXT
  8
05 町名
 10
-356.120386
 20
277.155199
 11
-356.120386
 21
277.155199
 40
1.354697
 41
0.500000
 62
251
 72
1
  1
海岸通三丁目
  0
TEXT
  8
05 町名
 10
-345.108413
 20
270.486830
 11
-345.108413
 21
270.486830
 40
1.354697
 41
0.500000
 62
251
 72
1
  1
海岸通二丁目
  0
TEXT
  8
05 町名
 10
-370.839993
 20
272.207322
 11
-370.839993
 21
272.207322
 40
1.354697
 41
0.500000
 62
251
 72
1
  1
元浜町四丁目
  0
TEXT
  8
05 町名
 10
-360.909788
 20
266.576622
 11
-360.909788
 21
266.576622
 40
1.354697
 41
0.500000
 62
251
 72
1
  1
元浜町三丁目
  0
TEXT
  8
05 町名
 10
-350.888631
 20
260.456027
 11
-350.888631
 21
260.456027
 40
1.354697
 41
0.500000
 62
251
 72
1
  1
元浜町二丁目
  0
TEXT
  8
05 町名
 10
-384.112307
 20
278.850886
 11
-384.112307
 21
278.850886
 40
1.354697
 41
0.500000
 62
251
 72
1
  1
北仲通五丁目
  0
TEXT
  8
05 町名
 10
-373.581962
 20
268.192382
 11
-373.581962
 21
268.192382
 40
1.354697
 41
0.500000
 62
251
 72
1
  1
北仲通四丁目
  0
TEXT
  8
05 町名
 10
-363.491558
 20
262.431457
 11
-363.491558
 21
262.431457
 40
1.354697
 41
0.500000
 62
251
 72
1
  1
北仲通三丁目
  0
TEXT
  8
05 町名
 10
-353.325018
 20
256.392511
 11
-353.325018
 21
256.392511
 40
1.354697
 41
0.500000
 62
251
 72
1
  1
北仲通二丁目
  0
TEXT
  8
05 町名
 10
-405.069300
 20
288.380080
 11
-405.069300
 21
288.380080
 40
1.354697
 41
0.500000
 62
251
 72
1
  1
北仲通六丁目
  0
TEXT
  8
05 町名
 10
-404.336179
 20
271.112464
 11
-404.336179
 21
271.112464
 40
1.354697
 41
0.500000
 62
251
 72
1
  1
本町六丁目
  0
TEXT
  8
05 町名
 10
-386.352667
 20
269.017143
 11
-386.352667
 21
269.017143
 40
1.354697
 41
0.500000
 62
251
 72
1
  1
本町五丁目
  0
TEXT
  8
05 町名
 10
-376.492397
 20
263.286535
 11
-376.492397
 21
263.286535
 40
1.354697
 41
0.500000
 62
251
 72
1
  1
本町四丁目
  0
TEXT
  8
05 町名
 10
-389.091191
 20
262.902749
 11
-389.091191
 21
262.902749
 40
1.354697
 41
0.500000
 62
251
 72
1
  1
南仲通五丁目
  0
TEXT
  8
05 町名
 10
-379.362524
 20
258.286292
 11
-379.362524
 21
258.286292
 40
1.354697
 41
0.500000
 62
251
 72
1
  1
南仲通四丁目
  0
TEXT
  8
05 町名
 10
-405.969164
 20
261.101987
 11
-405.969164
 21
261.101987
 40
1.354697
 41
0.500000
 62
251
 72
1
  1
太田町六丁目
  0
TEXT
  8
05 町名
 10
-399.982240
 20
263.859803
 11
-399.982240
 21
263.859803
 40
1.354697
 41
0.500000
 62
251
 72
1
  1
弁天通六丁目
  0
TEXT
  8
05 町名
 10
-391.924111
 20
259.167898
 11
-391.924111
 21
259.167898
 40
1.354697
 41
0.500000
 62
251
 72
1
  1
弁天通五丁目
  0
TEXT
  8
05 町名
 10
-365.962396
 20
258.061671
 11
-365.962396
 21
258.061671
 40
1.354697
 41
0.500000
 62
251
 72
1
  1
本町三丁目
  0
TEXT
  8
05 町名
 10
-330.972064
 20
262.019421
 11
-330.972064
 21
262.019421
 40
1.354697
 41
0.500000
 62
251
 72
1
  1
海岸通一丁目
  0
TEXT
  8
05 町名
 10
-420.213690
 20
228.664486
 11
-420.213690
 21
228.664486
 40
1.354697
 41
0.500000
 62
251
 72
1
  1
吉田町
  0
TEXT
  8
05 町名
 10
-350.771841
 20
207.351613
 11
-350.771841
 21
207.351613
 40
1.354697
 41
0.500000
 62
251
 72
1
  1
横浜公園
  0
TEXT
  8
05 町名
 10
-334.718629
 20
231.512909
 11
-334.718629
 21
231.512909
 40
1.354697
 41
0.500000
 62
251
 72
1
  1
日本大通
  0
TEXT
  8
05 町名
 10
-340.971516
 20
254.733687
 11
-340.971516
 21
254.733687
 40
1.354697
 41
0.500000
 62
251
 72
1
  1
元浜町一丁目
  0
TEXT
  8
05 町名
 10
-344.008043
 20
249.660408
 11
-344.008043
 21
249.660408
 40
1.354697
 41
0.500000
 62
251
 72
1
  1
北仲通一丁目
  0
TEXT
  8
05 町名
 10
-357.059525
 20
250.974376
 11
-357.059525
 21
250.974376
 40
1.354697
 41
0.500000
 62
251
 72
1
  1
本町二丁目
  0
TEXT
  8
05 町名
 10
-346.788941
 20
245.034993
 11
-346.788941
 21
245.034993
 40
1.354697
 41
0.500000
 62
251
 72
1
  1
本町一丁目
  0
TEXT
  8
05 町名
 10
-349.927443
 20
239.249264
 11
-349.927443
 21
239.249264
 40
1.354697
 41
0.500000
 62
251
 72
1
  1
南仲通一丁目
  0
TEXT
  8
05 町名
 10
-359.960313
 20
246.140187
 11
-359.960313
 21
246.140187
 40
1.354697
 41
0.500000
 62
251
 72
1
  1
南仲通二丁目
  0
TEXT
  8
05 町名
 10
-369.601474
 20
252.150539
 11
-369.601474
 21
252.150539
 40
1.354697
 41
0.500000
 62
251
 72
1
  1
南仲通三丁目
  0
TEXT
  8
05 町名
 10
-382.332904
 20
253.135842
 11
-382.332904
 21
253.135842
 40
1.354697
 41
0.500000
 62
251
 72
1
  1
弁天通四丁目
  0
TEXT
  8
05 町名
 10
-372.863311
 20
248.003995
 11
-372.863311
 21
248.003995
 40
1.354697
 41
0.500000
 62
251
 72
1
  1
弁天通三丁目
  0
TEXT
  8
05 町名
 10
-362.701248
 20
241.514084
 11
-362.701248
 21
241.514084
 40
1.354697
 41
0.500000
 62
251
 72
1
  1
弁天通二丁目
  0
TEXT
  8
05 町名
 10
-353.189280
 20
235.192983
 11
-353.189280
 21
235.192983
 40
1.354697
 41
0.500000
 62
251
 72
1
  1
弁天通一丁目
  0
TEXT
  8
05 町名
 10
-393.821681
 20
254.940394
 11
-393.821681
 21
254.940394
 40
1.354697
 41
0.500000
 62
251
 72
1
  1
太田町五丁目
  0
TEXT
  8
05 町名
 10
-385.313620
 20
248.620671
 11
-385.313620
 21
248.620671
 40
1.354697
 41
0.500000
 62
251
 72
1
  1
太田町四丁目
  0
TEXT
  8
05 町名
 10
-375.583231
 20
242.909356
 11
-375.583231
 21
242.909356
 40
1.354697
 41
0.500000
 62
251
 72
1
  1
太田町三丁目
  0
TEXT
  8
05 町名
 10
-365.801165
 20
236.478700
 11
-365.801165
 21
236.478700
 40
1.354697
 41
0.500000
 62
251
 72
1
  1
太田町二丁目
  0
TEXT
  8
05 町名
 10
-356.129343
 20
229.957783
 11
-356.129343
 21
229.957783
 40
1.354697
 41
0.500000
 62
251
 72
1
  1
太田町一丁目
  0
TEXT
  8
05 町名
 10
-396.806531
 20
250.268127
 11
-396.806531
 21
250.268127
 40
1.354697
 41
0.500000
 62
251
 72
1
  1
相生町五丁目
  0
TEXT
  8
05 町名
 10
-387.934320
 20
244.005592
 11
-387.934320
 21
244.005592
 40
1.354697
 41
0.500000
 62
251
 72
1
  1
相生町四丁目
  0
TEXT
  8
05 町名
 10
-378.753083
 20
237.714119
 11
-378.753083
 21
237.714119
 40
1.354697
 41
0.500000
 62
251
 72
1
  1
相生町三丁目
  0
TEXT
  8
05 町名
 10
-369.140862
 20
231.292421
 11
-369.140862
 21
231.292421
 40
1.354697
 41
0.500000
 62
251
 72
1
  1
相生町二丁目
  0
TEXT
  8
05 町名
 10
-359.509003
 20
224.781150
 11
-359.509003
 21
224.781150
 40
1.354697
 41
0.500000
 62
251
 72
1
  1
相生町一丁目
  0
TEXT
  8
05 町名
 10
-411.002480
 20
253.654677
 11
-411.002480
 21
253.654677
 40
1.354697
 41
0.500000
 62
251
 72
1
  1
住吉町六丁目
  0
TEXT
  8
05 町名
 10
-399.965703
 20
244.952311
 11
-399.965703
 21
244.952311
 40
1.354697
 41
0.500000
 62
251
 72
1
  1
住吉町五丁目
  0
TEXT
  8
05 町名
 10
-390.993929
 20
238.330106
 11
-390.993929
 21
238.330106
 40
1.354697
 41
0.500000
 62
251
 72
1
  1
住吉町四丁目
  0
TEXT
  8
05 町名
 10
-382.192688
 20
232.297706
 11
-382.192688
 21
232.297706
 40
1.354697
 41
0.500000
 62
251
 72
1
  1
住吉町三丁目
  0
TEXT
  8
05 町名
 10
-373.000771
 20
226.025526
 11
-373.000771
 21
226.025526
 40
1.354697
 41
0.500000
 62
251
 72
1
  1
住吉町二丁目
  0
TEXT
  8
05 町名
 10
-363.269004
 20
219.454998
 11
-363.269004
 21
219.454998
 40
1.354697
 41
0.500000
 62
251
 72
1
  1
住吉町一丁目
  0
TEXT
  8
05 町名
 10
-413.656254
 20
250.715303
 11
-413.656254
 21
250.715303
 40
1.354697
 41
0.500000
 62
251
 72
1
  1
常盤町六丁目
  0
TEXT
  8
05 町名
 10
-403.607192
 20
240.345500
 11
-403.607192
 21
240.345500
 40
1.354697
 41
0.500000
 62
251
 72
1
  1
常盤町五丁目
  0
TEXT
  8
05 町名
 10
-394.082821
 20
232.624303
 11
-394.082821
 21
232.624303
 40
1.354697
 41
0.500000
 62
251
 72
1
  1
常盤町四丁目
  0
TEXT
  8
05 町名
 10
-385.852436
 20
227.040457
 11
-385.852436
 21
227.040457
 40
1.354697
 41
0.500000
 62
251
 72
1
  1
常盤町三丁目
  0
TEXT
  8
05 町名
 10
-376.770418
 20
220.878521
 11
-376.770418
 21
220.878521
 40
1.354697
 41
0.500000
 62
251
 72
1
  1
常盤町二丁目
  0
TEXT
  8
05 町名
 10
-366.927718
 20
214.137805
 11
-366.927718
 21
214.137805
 40
1.354697
 41
0.500000
 62
251
 72
1
  1
常盤町一丁目
  0
TEXT
  8
05 町名
 10
-417.070021
 20
247.589203
 11
-417.070021
 21
247.589203
 40
1.354697
 41
0.500000
 62
251
 72
1
  1
尾上町六丁目
  0
TEXT
  8
05 町名
 10
-406.945510
 20
234.449526
 11
-406.945510
 21
234.449526
 40
1.354697
 41
0.500000
 62
251
 72
1
  1
尾上町五丁目
  0
TEXT
  8
05 町名
 10
-397.571347
 20
227.068018
 11
-397.571347
 21
227.068018
 40
1.354697
 41
0.500000
 62
251
 72
1
  1
尾上町四丁目
  0
TEXT
  8
05 町名
 10
-389.641376
 20
221.733599
 11
-389.641376
 21
221.733599
 40
1.354697
 41
0.500000
 62
251
 72
1
  1
尾上町三丁目
  0
TEXT
  8
05 町名
 10
-380.630327
 20
215.581653
 11
-380.630327
 21
215.581653
 40
1.354697
 41
0.500000
 62
251
 72
1
  1
尾上町二丁目
  0
TEXT
  8
05 町名
 10
-370.617439
 20
208.631129
 11
-370.617439
 21
208.631129
 40
1.354697
 41
0.500000
 62
251
 72
1
  1
尾上町一丁目
  0
TEXT
  8
05 町名
 10
-400.462489
 20
222.232452
 11
-400.462489
 21
222.232452
 40
1.354697
 41
0.500000
 62
251
 72
1
  1
真砂町四丁目
  0
TEXT
  8
05 町名
 10
-393.051008
 20
216.187649
 11
-393.051008
 21
216.187649
 40
1.354697
 41
0.500000
 62
251
 72
1
  1
真砂町三丁目
  0
TEXT
  8
05 町名
 10
-384.539846
 20
210.204170
 11
-384.539846
 21
210.204170
 40
1.354697
 41
0.500000
 62
251
 72
1
  1
真砂町二丁目
  0
TEXT
  8
05 町名
 10
-375.129853
 20
204.661665
 11
-375.129853
 21
204.661665
 40
1.354697
 41
0.500000
 62
251
 72
1
  1
真砂町１丁目
  0
TEXT
  8
05 町名
 10
-421.022259
 20
244.961268
 11
-421.022259
 21
244.961268
 40
1.354697
 41
0.500000
 62
251
 72
1
  1
港町六丁目
  0
TEXT
  8
05 町名
 10
-411.691504
 20
231.377171
 11
-411.691504
 21
231.377171
 40
1.354697
 41
0.500000
 62
251
 72
1
  1
港町五丁目
  0
TEXT
  8
05 町名
 10
-402.962955
 20
219.880815
 11
-402.962955
 21
219.880815
 40
1.354697
 41
0.500000
 62
251
 72
1
  1
港町四丁目
  0
TEXT
  8
05 町名
 10
-394.840747
 20
212.643313
 11
-394.840747
 21
212.643313
 40
1.354697
 41
0.500000
 62
251
 72
1
  1
港町三丁目
  0
TEXT
  8
05 町名
 10
-388.167899
 20
204.128017
 11
-388.167899
 21
204.128017
 40
1.354697
 41
0.500000
 62
251
 72
1
  1
港町二丁目
  0
TEXT
  8
05 町名
 10
-378.304184
 20
196.957005
 11
-378.304184
 21
196.957005
 40
1.354697
 41
0.500000
 62
251
 72
1
  1
港町一丁目
  0
TEXT
  8
05 町名
 10
-417.544758
 20
213.028477
 11
-417.544758
 21
213.028477
 40
1.354697
 41
0.500000
 62
251
 72
1
  1
伊勢佐木町一丁目
  0
TEXT
  8
05 町名
 10
-426.890672
 20
198.341253
 11
-426.890672
 21
198.341253
 40
1.354697
 41
0.500000
 62
251
 72
1
  1
末広町三丁目
  0
TEXT
  8
05 町名
 10
-418.819451
 20
205.928090
 11
-418.819451
 21
205.928090
 40
1.354697
 41
0.500000
 62
251
 72
1
  1
末広町二丁目
  0
TEXT
  8
05 町名
 10
-408.512005
 20
215.112773
 11
-408.512005
 21
215.112773
 40
1.354697
 41
0.500000
 62
251
 72
1
  1
末広町一丁目
  0
TEXT
  8
05 町名
 10
-404.524971
 20
208.166038
 11
-404.524971
 21
208.166038
 40
1.354697
 41
0.500000
 62
251
 72
1
  1
羽衣町一丁目
  0
TEXT
  8
05 町名
 10
-413.398215
 20
199.949434
 11
-413.398215
 21
199.949434
 40
1.354697
 41
0.500000
 62
251
 72
1
  1
羽衣町二丁目
  0
TEXT
  8
05 町名
 10
-421.212430
 20
193.345833
 11
-421.212430
 21
193.345833
 40
1.354697
 41
0.500000
 62
251
 72
1
  1
羽衣町三丁目
  0
TEXT
  8
05 町名
 10
-396.178830
 20
199.392014
 11
-396.178830
 21
199.392014
 40
1.354697
 41
0.500000
 62
251
 72
1
  1
蓬莱町一丁目
  0
TEXT
  8
05 町名
 10
-405.312525
 20
191.395208
 11
-405.312525
 21
191.395208
 40
1.354697
 41
0.500000
 62
251
 72
1
  1
蓬莱町二丁目
  0
TEXT
  8
05 町名
 10
-414.626399
 20
183.377731
 11
-414.626399
 21
183.377731
 40
1.354697
 41
0.500000
 62
251
 72
1
  1
蓬莱町三丁目
  0
TEXT
  8
05 町名
 10
-389.086023
 20
192.676102
 11
-389.086023
 21
192.676102
 40
1.354697
 41
0.500000
 62
251
 72
1
  1
万代町一丁目
  0
TEXT
  8
05 町名
 10
-398.939058
 20
184.047462
 11
-398.939058
 21
184.047462
 40
1.354697
 41
0.500000
 62
251
 72
1
  1
万代町二丁目
  0
TEXT
  8
05 町名
 10
-408.021076
 20
174.880694
 11
-408.021076
 21
174.880694
 40
1.354697
 41
0.500000
 62
251
 72
1
  1
万代町三丁目
  0
TEXT
  8
05 町名
 10
-380.690961
 20
185.022430
 11
-380.690961
 21
185.022430
 40
1.354697
 41
0.500000
 62
251
 72
1
  1
不老町一丁目
  0
TEXT
  8
05 町名
 10
-390.500588
 20
174.314317
 11
-390.500588
 21
174.314317
 40
1.354697
 41
0.500000
 62
251
 72
1
  1
不老町二丁目
  0
TEXT
  8
05 町名
 10
-397.690548
 20
164.430965
 11
-397.690548
 21
164.430965
 40
1.354697
 41
0.500000
 62
251
 72
1
  1
不老町三丁目
  0
TEXT
  8
05 町名
 10
-368.461484
 20
183.383932
 11
-368.461484
 21
183.383932
 40
1.354697
 41
0.500000
 62
251
 72
1
  1
翁町一丁目
  0
TEXT
  8
05 町名
 10
-374.851832
 20
174.865191
 11
-374.851832
 21
174.865191
 40
1.354697
 41
0.500000
 62
251
 72
1
  1
翁町二丁目
  0
TEXT
  8
05 町名
 10
-382.543745
 20
165.540292
 11
-382.543745
 21
165.540292
 40
1.354697
 41
0.500000
 62
251
 72
1
  1
翁町三丁目
  0
TEXT
  8
05 町名
 10
-361.904048
 20
178.952823
 11
-361.904048
 21
178.952823
 40
1.354697
 41
0.500000
 62
251
 72
1
  1
扇町一丁目
  0
TEXT
  8
05 町名
 10
-367.546461
 20
166.599321
 11
-367.546461
 21
166.599321
 40
1.354697
 41
0.500000
 62
251
 72
1
  1
扇町二丁目
  0
TEXT
  8
05 町名
 10
-376.301193
 20
158.632832
 11
-376.301193
 21
158.632832
 40
1.354697
 41
0.500000
 62
251
 72
1
  1
扇町三丁目
  0
TEXT
  8
05 町名
 10
-351.017478
 20
166.601389
 11
-351.017478
 21
166.601389
 40
1.354697
 41
0.500000
 62
251
 72
1
  1
寿町一丁目
  0
TEXT
  8
05 町名
 10
-342.173862
 20
161.459551
 11
-342.173862
 21
161.459551
 40
1.354697
 41
0.500000
 62
251
 72
1
  1
松影町一丁目
  0
TEXT
  8
05 町名
 10
-415.684739
 20
166.906626
 11
-415.684739
 21
166.906626
 40
1.354697
 41
0.500000
 62
251
 72
1
  1
長者町四丁目
  0
TEXT
  8
05 町名
 10
-428.587737
 20
176.655619
 11
-428.587737
 21
176.655619
 40
1.354697
 41
0.500000
 62
251
 72
1
  1
長者町五丁目
  0
TEXT
  8
05 町名
 10
-292.176599
 20
205.802688
 11
-292.176599
 21
205.802688
 40
1.354697
 41
0.500000
 62
251
 72
1
  1
山下町
  0
TEXT
  8
06 駅名・鉄道名
 10
-354.277937
 20
182.920220
 11
-354.277937
 21
182.920220
 40
1.808905
 41
0.500000
 50
331.633275
 72
1
  1
ＪＲ根岸線
  0
TEXT
  8
06 駅名・鉄道名
 10
-419.471957
 20
239.061160
 11
-419.471957
 21
239.061160
 40
1.808905
 41
0.500000
 50
304.665807
 72
1
  1
ＪＲ根岸線
  0
TEXT
  8
06 駅名・鉄道名
 10
-391.974409
 20
205.477469
 11
-391.974409
 21
205.477469
 40
1.808905
 41
0.500000
 72
1
  1
関内駅
  0
TEXT
  8
07 街区符号
 10
-364.229158
 20
303.301227
 11
-364.229158
 21
303.301227
 40
0.988142
 41
0.500000
 62
44
 72
1
  1
1
  0
TEXT
  8
07 街区符号
 10
-320.366959
 20
293.776167
 11
-320.366959
 21
293.776167
 40
0.988142
 41
0.500000
 62
44
 72
1
  1
1
  0
TEXT
  8
07 街区符号
 10
-350.364973
 20
292.317849
 11
-350.364973
 21
292.317849
 40
0.988142
 41
0.500000
 62
44
 72
1
  1
6
  0
TEXT
  8
07 街区符号
 10
-347.868641
 20
302.333149
 11
-347.868641
 21
302.333149
 40
0.988142
 41
0.500000
 62
44
 72
1
  1
5
  0
POLYLINE
  8
08 地下鉄
  6
AIGENLINE002
 40
0.352780
 41
0.352780
 62
160
 66
1
 10
0
 20
0
 30
0
 70
128
  0
VERTEX
  8
08 地下鉄
 10
-434.355552
 20
162.789022
  0
VERTEX
  8
08 地下鉄
 10
-426.386307
 20
167.174312
  0
VERTEX
  8
08 地下鉄
 10
-418.742970
 20
171.407672
  0
VERTEX
  8
08 地下鉄
 10
-410.746853
 20
177.669517
  0
VERTEX
  8
08 地下鉄
 10
-391.108307
 20
194.691152
  0
VERTEX
  8
08 地下鉄
 10
-384.523310
 20
202.452312
  0
VERTEX
  8
08 地下鉄
 10
-382.994367
 20
204.334035
  0
VERTEX
  8
08 地下鉄
 10
-382.053850
 20
206.568193
  0
VERTEX
  8
08 地下鉄
 10
-381.466113
 20
208.802352
  0
VERTEX
  8
08 地下鉄
 10
-381.289723
 20
211.566025
  0
VERTEX
  8
08 地下鉄
 10
-381.701070
 20
214.211875
  0
VERTEX
  8
08 地下鉄
 10
-382.877233
 20
216.769530
  0
VERTEX
  8
08 地下鉄
 10
-385.170303
 20
219.150795
  0
VERTEX
  8
08 地下鉄
 10
-389.197645
 20
222.325815
  0
VERTEX
  8
08 地下鉄
 10
-403.808387
 20
231.733052
  0
VERTEX
  8
08 地下鉄
 10
-425.210833
 20
248.784315
  0
VERTEX
  8
08 地下鉄
 10
-429.091413
 20
252.312115
  0
VERTEX
  8
08 地下鉄
 10
-432.501390
 20
256.780432
  0
VERTEX
  8
08 地下鉄
 10
-434.355552
 20
259.477269
  0
SEQEND
  0
POLYLINE
  8
08 地下鉄
 40
0.050000
 41
0.050000
 62
160
 66
1
 10
0
 20
0
 30
0
 70
1
  0
VERTEX
  8
08 地下鉄
 10
-418.987229
 20
171.776299
  0
VERTEX
  8
08 地下鉄
 10
-426.599904
 20
167.560165
  0
VERTEX
  8
08 地下鉄
 10
-426.172709
 20
166.788458
  0
VERTEX
  8
08 地下鉄
 10
-418.498711
 20
171.039044
  0
VERTEX
  8
08 地下鉄
 10
-410.475033
 20
177.322249
  0
VERTEX
  8
08 地下鉄
 10
-411.018673
 20
178.016784
  0
SEQEND
  0
HATCH
  8
08 地下鉄
 62
160
 10
0.0
 20
0.0
 30
0.0
 210
0.0
 220
0.0
 230
1.0
  2
SOLID
 70
     1
 71
     1
 91
     1
 92
     2
 72
     1
 73
     1
 93
     6
 10
-418.987229
 20
171.776299
 42
0.000000
 10
-426.599904
 20
167.560165
 42
0.000000
 10
-426.172709
 20
166.788458
 42
0.000000
 10
-418.498711
 20
171.039044
 42
0.000000
 10
-410.475033
 20
177.322249
 42
0.000000
 10
-411.018673
 20
178.016784
 42
0.000000
 97
     0
 75
     0
 76
     1
 98
     1
 10
0.0
 20
0.0
  0
POLYLINE
  8
08 地下鉄
 40
0.050000
 41
0.050000
 62
160
 66
1
 10
0
 20
0
 30
0
 70
1
  0
VERTEX
  8
08 地下鉄
 10
-404.047133
 20
231.362357
  0
VERTEX
  8
08 地下鉄
 10
-389.436391
 20
221.955120
  0
VERTEX
  8
08 地下鉄
 10
-388.958898
 20
222.696509
  0
VERTEX
  8
08 地下鉄
 10
-403.569640
 20
232.103746
  0
SEQEND
  0
HATCH
  8
08 地下鉄
 62
160
 10
0.0
 20
0.0
 30
0.0
 210
0.0
 220
0.0
 230
1.0
  2
SOLID
 70
     1
 71
     1
 91
     1
 92
     2
 72
     1
 73
     1
 93
     4
 10
-404.047133
 20
231.362357
 42
0.000000
 10
-389.436391
 20
221.955120
 42
0.000000
 10
-388.958898
 20
222.696509
 42
0.000000
 10
-403.569640
 20
232.103746
 42
0.000000
 97
     0
 75
     0
 76
     1
 98
     1
 10
0.0
 20
0.0
  0
POLYLINE
  8
08 地下鉄
  6
AIGENLINE003
 40
0.352780
 41
0.352780
 62
251
 66
1
 10
0
 20
0
 30
0
 70
128
  0
VERTEX
  8
08 地下鉄
 10
-411.115480
 20
307.860495
  0
VERTEX
  8
08 地下鉄
 10
-411.364562
 20
305.491288
  0
VERTEX
  8
08 地下鉄
 10
-411.364562
 20
302.880578
  0
VERTEX
  8
08 地下鉄
 10
-411.112035
 20
299.343821
  0
VERTEX
  8
08 地下鉄
 10
-410.354109
 20
295.638253
  0
VERTEX
  8
08 地下鉄
 10
-409.007069
 20
292.017435
  0
VERTEX
  8
08 地下鉄
 10
-406.901413
 20
287.975623
  0
VERTEX
  8
08 地下鉄
 10
-404.291392
 20
284.017873
  0
VERTEX
  8
08 地下鉄
 10
-402.017615
 20
281.660034
  0
VERTEX
  8
08 地下鉄
 10
-399.744182
 20
279.722500
  0
VERTEX
  8
08 地下鉄
 10
-397.049067
 20
277.870405
  0
VERTEX
  8
08 地下鉄
 10
-381.116089
 20
267.933309
  0
VERTEX
  8
08 地下鉄
 10
-342.228640
 20
243.512941
  0
VERTEX
  8
08 地下鉄
 10
-328.166016
 20
233.491784
  0
VERTEX
  8
08 地下鉄
 10
-321.934488
 20
228.944918
  0
VERTEX
  8
08 地下鉄
 10
-307.870830
 20
220.270802
  0
VERTEX
  8
08 地下鉄
 10
-295.576585
 20
213.955213
  0
VERTEX
  8
08 地下鉄
 10
-292.039828
 20
212.187179
  0
VERTEX
  8
08 地下鉄
 10
-288.755942
 20
210.502517
  0
VERTEX
  8
08 地下鉄
 10
-285.639834
 20
208.565672
  0
VERTEX
  8
08 地下鉄
 10
-284.247662
 20
207.410869
  0
SEQEND
  0
POLYLINE
  8
08 地下鉄
 40
0.050000
 41
0.050000
 62
251
 66
1
 10
0
 20
0
 30
0
 70
1
  0
VERTEX
  8
08 地下鉄
 10
-342.484612
 20
243.153960
  0
VERTEX
  8
08 地下鉄
 10
-328.421988
 20
233.132803
  0
VERTEX
  8
08 地下鉄
 10
-327.910044
 20
233.850765
  0
VERTEX
  8
08 地下鉄
 10
-341.972667
 20
243.871922
  0
SEQEND
  0
HATCH
  8
08 地下鉄
 62
251
 10
0.0
 20
0.0
 30
0.0
 210
0.0
 220
0.0
 230
1.0
  2
SOLID
 70
     1
 71
     1
 91
     1
 92
     2
 72
     1
 73
     1
 93
     4
 10
-342.484612
 20
243.153960
 42
0.000000
 10
-328.421988
 20
233.132803
 42
0.000000
 10
-327.910044
 20
233.850765
 42
0.000000
 10
-341.972667
 20
243.871922
 42
0.000000
 97
     0
 75
     0
 76
     1
 98
     1
 10
0.0
 20
0.0
  0
POLYLINE
  8
08 地下鉄
 40
0.050000
 41
0.050000
 62
251
 66
1
 10
0
 20
0
 30
0
 70
1
  0
VERTEX
  8
08 地下鉄
 10
-397.282301
 20
277.496266
  0
VERTEX
  8
08 地下鉄
 10
-381.349323
 20
267.559170
  0
VERTEX
  8
08 地下鉄
 10
-380.882854
 20
268.307449
  0
VERTEX
  8
08 地下鉄
 10
-396.815832
 20
278.244545
  0
SEQEND
  0
HATCH
  8
08 地下鉄
 62
251
 10
0.0
 20
0.0
 30
0.0
 210
0.0
 220
0.0
 230
1.0
  2
SOLID
 70
     1
 71
     1
 91
     1
 92
     2
 72
     1
 73
     1
 93
     4
 10
-397.282301
 20
277.496266
 42
0.000000
 10
-381.349323
 20
267.559170
 42
0.000000
 10
-380.882854
 20
268.307449
 42
0.000000
 10
-396.815832
 20
278.244545
 42
0.000000
 97
     0
 75
     0
 76
     1
 98
     1
 10
0.0
 20
0.0
  0
TEXT
  8
08 地下鉄
 10
-389.108072
 20
272.486376
 11
-389.108072
 21
272.486376
 40
1.402515
 41
0.500000
 72
1
  1
馬車道駅
  0
TEXT
  8
08 地下鉄
 10
-335.132732
 20
238.149582
 11
-335.132732
 21
238.149582
 40
1.402515
 41
0.500000
 72
1
  1
日本大通駅
  0
TEXT
  8
08 地下鉄
 10
-419.683487
 20
170.680407
 11
-419.683487
 21
170.680407
 40
1.402515
 41
0.500000
 72
1
  1
伊勢佐木長者町駅
  0
TEXT
  8
08 地下鉄
 10
-394.812152
 20
225.478441
 11
-394.812152
 21
225.478441
 40
1.402515
 41
0.500000
 72
1
  1
関内駅
  0
POLYLINE
  8
12 区界
  6
AIGENLINE004
 40
0.176390
 41
0.176390
 62
30
 66
1
 10
0
 20
0
 30
0
 70
128
  0
VERTEX
  8
12 区界
 10
-425.177071
 20
298.284103
  0
VERTEX
  8
12 区界
 10
-430.341990
 20
303.626102
  0
VERTEX
  8
12 区界
 10
-433.314437
 20
307.860495
  0
SEQEND
  0
POLYLINE
  8
12 区界
  6
AIGENLINE004
 40
0.176390
 41
0.176390
 62
30
 66
1
 10
0
 20
0
 30
0
 70
128
  0
VERTEX
  8
12 区界
 10
-425.177071
 20
298.284103
  0
VERTEX
  8
12 区界
 10
-422.046837
 20
296.058557
  0
VERTEX
  8
12 区界
 10
-421.337832
 20
299.014468
  0
VERTEX
  8
12 区界
 10
-416.449900
 20
300.163759
  0
SEQEND
  0
POLYLINE
  8
12 区界
  6
AIGENLINE004
 40
0.176390
 41
0.176390
 62
30
 66
1
 10
0
 20
0
 30
0
 70
128
  0
VERTEX
  8
12 区界
 10
-414.381451
 20
307.860495
  0
VERTEX
  8
12 区界
 10
-416.449900
 20
300.163759
  0
SEQEND
  0
POLYLINE
  8
13 町界
  6
AIGENLINE004
 40
0.176390
 41
0.176390
 62
30
 66
1
 10
0
 20
0
 30
0
 70
128
  0
VERTEX
  8
13 町界
 10
-432.232671
 20
167.127802
  0
VERTEX
  8
13 町界
 10
-431.931912
 20
166.588297
  0
VERTEX
  8
13 町界
 10
-434.355552
 20
165.299479
  0
SEQEND
  0
POLYLINE
  8
13 町界
  6
AIGENLINE004
 40
0.176390
 41
0.176390
 62
30
 66
1
 10
0
 20
0
 30
0
 70
128
  0
VERTEX
  8
13 町界
 10
-432.232671
 20
167.127802
  0
VERTEX
  8
13 町界
 10
-434.355552
 20
170.706246
  0
SEQEND
  0
POLYLINE
  8
13 町界
  6
AIGENLINE004
 40
0.176390
 41
0.176390
 62
30
 66
1
 10
0
 20
0
 30
0
 70
128
  0
VERTEX
  8
13 町界
 10
-432.847280
 20
197.004548
  0
VERTEX
  8
13 町界
 10
-430.123914
 20
193.671052
  0
SEQEND
  0
POLYLINE
  8
13 町界
  6
AIGENLINE004
 40
0.176390
 41
0.176390
 62
30
 66
1
 10
0
 20
0
 30
0
 70
128
  0
VERTEX
  8
13 町界
 10
-434.109570
 20
239.949312
  0
VERTEX
  8
13 町界
 10
-434.355552
 20
239.676803
  0
SEQEND
  0
POLYLINE
  8
13 町界
  6
AIGENLINE004
 40
0.176390
 41
0.176390
 62
30
 66
1
 10
0
 20
0
 30
0
 70
128
  0
VERTEX
  8
13 町界
 10
-434.355552
 20
252.295578
  0
VERTEX
  8
13 町界
 10
-434.017586
 20
252.898818
  0
VERTEX
  8
13 町界
 10
-434.355552
 20
253.055226
  0
SEQEND
  0
POLYLINE
  8
13 町界
  6
AIGENLINE004
 40
0.176390
 41
0.176390
 62
30
 66
1
 10
0
 20
0
 30
0
 70
128
  0
VERTEX
  8
13 町界
 10
-434.355552
 20
240.063345
  0
VERTEX
  8
13 町界
 10
-434.109570
 20
239.949312
  0
SEQEND
  0
POLYLINE
  8
13 町界
  6
AIGENLINE004
 40
0.176390
 41
0.176390
 62
30
 66
1
 10
0
 20
0
 30
0
 70
128
  0
VERTEX
  8
13 町界
 10
-432.847280
 20
197.004548
  0
VERTEX
  8
13 町界
 10
-434.355552
 20
195.617199
  0
SEQEND
  0
POLYLINE
  8
13 町界
  6
AIGENLINE004
 40
0.176390
 41
0.176390
 62
30
 66
1
 10
0
 20
0
 30
0
 70
128
  0
VERTEX
  8
13 町界
 10
-418.573125
 20
260.161814
  0
VERTEX
  8
13 町界
 10
-416.970801
 20
259.064889
  0
VERTEX
  8
13 町界
 10
-416.067492
 20
257.366446
  0
SEQEND
  0
POLYLINE
  8
13 町界
  6
AIGENLINE004
 40
0.176390
 41
0.176390
 62
30
 66
1
 10
0
 20
0
 30
0
 70
128
  0
VERTEX
  8
13 町界
 10
-409.840098
 20
268.772540
  0
VERTEX
  8
13 町界
 10
-397.174125
 20
260.252765
  0
SEQEND
  0
POLYLINE
  8
13 町界
  6
AIGENLINE004
 40
0.176390
 41
0.176390
 62
30
 66
1
 10
0
 20
0
 30
0
 70
128
  0
VERTEX
  8
13 町界
 10
-394.802161
 20
264.457875
  0
VERTEX
  8
13 町界
 10
-389.375413
 20
260.717856
  0
VERTEX
  8
13 町界
 10
-389.274126
 20
260.118406
  0
VERTEX
  8
13 町界
 10
-386.671685
 20
258.723133
  0
SEQEND
  0
POLYLINE
  8
13 町界
  6
AIGENLINE004
 40
0.176390
 41
0.176390
 62
30
 66
1
 10
0
 20
0
 30
0
 70
128
  0
VERTEX
  8
13 町界
 10
-417.378703
 20
263.163889
  0
VERTEX
  8
13 町界
 10
-418.573125
 20
260.161814
  0
SEQEND
  0
POLYLINE
  8
13 町界
  6
AIGENLINE004
 40
0.176390
 41
0.176390
 62
30
 66
1
 10
0
 20
0
 30
0
 70
128
  0
VERTEX
  8
13 町界
 10
-394.802161
 20
264.457875
  0
VERTEX
  8
13 町界
 10
-392.659988
 20
268.410803
  0
SEQEND
  0
POLYLINE
  8
13 町界
  6
AIGENLINE004
 40
0.176390
 41
0.176390
 62
30
 66
1
 10
0
 20
0
 30
0
 70
128
  0
VERTEX
  8
13 町界
 10
-416.584948
 20
266.365092
  0
VERTEX
  8
13 町界
 10
-417.378703
 20
263.163889
  0
SEQEND
  0
POLYLINE
  8
13 町界
  6
AIGENLINE004
 40
0.176390
 41
0.176390
 62
30
 66
1
 10
0
 20
0
 30
0
 70
128
  0
VERTEX
  8
13 町界
 10
-409.840098
 20
268.772540
  0
VERTEX
  8
13 町界
 10
-401.867752
 20
268.778052
  0
VERTEX
  8
13 町界
 10
-394.802161
 20
264.457875
  0
SEQEND
  0
POLYLINE
  8
13 町界
  6
AIGENLINE004
 40
0.176390
 41
0.176390
 62
30
 66
1
 10
0
 20
0
 30
0
 70
128
  0
VERTEX
  8
13 町界
 10
-416.191516
 20
268.816293
  0
VERTEX
  8
13 町界
 10
-416.584948
 20
266.365092
  0
SEQEND
  0
POLYLINE
  8
13 町界
  6
AIGENLINE004
 40
0.176390
 41
0.176390
 62
30
 66
1
 10
0
 20
0
 30
0
 70
128
  0
VERTEX
  8
13 町界
 10
-416.191516
 20
268.816293
  0
VERTEX
  8
13 町界
 10
-409.840098
 20
268.772540
  0
SEQEND
  0
POLYLINE
  8
13 町界
  6
AIGENLINE004
 40
0.176390
 41
0.176390
 62
30
 66
1
 10
0
 20
0
 30
0
 70
128
  0
VERTEX
  8
13 町界
 10
-415.705065
 20
276.796218
  0
VERTEX
  8
13 町界
 10
-399.526106
 20
276.917486
  0
VERTEX
  8
13 町界
 10
-399.570893
 20
274.058039
  0
VERTEX
  8
13 町界
 10
-399.519216
 20
273.377284
  0
VERTEX
  8
13 町界
 10
-392.469817
 20
273.541271
  0
SEQEND
  0
POLYLINE
  8
13 町界
  6
AIGENLINE004
 40
0.176390
 41
0.176390
 62
30
 66
1
 10
0
 20
0
 30
0
 70
128
  0
VERTEX
  8
13 町界
 10
-374.708860
 20
277.945509
  0
VERTEX
  8
13 町界
 10
-364.492709
 20
272.147377
  0
SEQEND
  0
POLYLINE
  8
13 町界
  6
AIGENLINE004
 40
0.176390
 41
0.176390
 62
30
 66
1
 10
0
 20
0
 30
0
 70
128
  0
VERTEX
  8
13 町界
 10
-374.708860
 20
277.945509
  0
VERTEX
  8
13 町界
 10
-377.236887
 20
274.100069
  0
SEQEND
  0
POLYLINE
  8
13 町界
  6
AIGENLINE004
 40
0.176390
 41
0.176390
 62
30
 66
1
 10
0
 20
0
 30
0
 70
128
  0
VERTEX
  8
13 町界
 10
-416.449900
 20
300.163759
  0
VERTEX
  8
13 町界
 10
-416.846088
 20
298.263432
  0
VERTEX
  8
13 町界
 10
-417.243655
 20
296.562578
  0
VERTEX
  8
13 町界
 10
-417.636398
 20
293.161903
  0
VERTEX
  8
13 町界
 10
-417.432447
 20
290.961851
  0
VERTEX
  8
13 町界
 10
-415.969650
 20
284.335512
  0
VERTEX
  8
13 町界
 10
-415.815654
 20
282.236058
  0
VERTEX
  8
13 町界
 10
-415.705065
 20
276.796218
  0
SEQEND
  0
POLYLINE
  8
13 町界
  6
AIGENLINE004
 40
0.176390
 41
0.176390
 62
30
 66
1
 10
0
 20
0
 30
0
 70
128
  0
VERTEX
  8
13 町界
 10
-396.256001
 20
302.502993
  0
VERTEX
  8
13 町界
 10
-395.209374
 20
293.975295
  0
SEQEND
  0
POLYLINE
  8
13 町界
  6
AIGENLINE004
 40
0.176390
 41
0.176390
 62
30
 66
1
 10
0
 20
0
 30
0
 70
128
  0
VERTEX
  8
13 町界
 10
-425.177071
 20
298.284103
  0
VERTEX
  8
13 町界
 10
-428.893663
 20
297.340141
  0
VERTEX
  8
13 町界
 10
-434.355552
 20
305.631160
  0
SEQEND
  0
POLYLINE
  8
13 町界
  6
AIGENLINE004
 40
0.176390
 41
0.176390
 62
30
 66
1
 10
0
 20
0
 30
0
 70
128
  0
VERTEX
  8
13 町界
 10
-381.758259
 20
303.579937
  0
VERTEX
  8
13 町界
 10
-372.650058
 20
298.847724
  0
VERTEX
  8
13 町界
 10
-368.145223
 20
296.557410
  0
VERTEX
  8
13 町界
 10
-364.441722
 20
294.212663
  0
SEQEND
  0
POLYLINE
  8
13 町界
  6
AIGENLINE004
 40
0.176390
 41
0.176390
 62
30
 66
1
 10
0
 20
0
 30
0
 70
128
  0
VERTEX
  8
13 町界
 10
-415.705065
 20
276.796218
  0
VERTEX
  8
13 町界
 10
-416.191516
 20
268.816293
  0
SEQEND
  0
POLYLINE
  8
13 町界
  6
AIGENLINE004
 40
0.176390
 41
0.176390
 62
30
 66
1
 10
0
 20
0
 30
0
 70
128
  0
VERTEX
  8
13 町界
 10
-344.941669
 20
260.760575
  0
VERTEX
  8
13 町界
 10
-344.044561
 20
262.419744
  0
VERTEX
  8
13 町界
 10
-341.127925
 20
260.661356
  0
VERTEX
  8
13 町界
 10
-335.497225
 20
270.470983
  0
VERTEX
  8
13 町界
 10
-337.540869
 20
282.866514
  0
SEQEND
  0
POLYLINE
  8
13 町界
  6
AIGENLINE004
 40
0.176390
 41
0.176390
 62
30
 66
1
 10
0
 20
0
 30
0
 70
128
  0
VERTEX
  8
13 町界
 10
-337.540869
 20
282.866514
  0
VERTEX
  8
13 町界
 10
-327.725385
 20
284.835743
  0
VERTEX
  8
13 町界
 10
-319.334113
 20
278.872245
  0
VERTEX
  8
13 町界
 10
-309.561694
 20
277.510735
  0
SEQEND
  0
POLYLINE
  8
13 町界
  6
AIGENLINE004
 40
0.176390
 41
0.176390
 62
30
 66
1
 10
0
 20
0
 30
0
 70
128
  0
VERTEX
  8
13 町界
 10
-346.519533
 20
282.579881
  0
VERTEX
  8
13 町界
 10
-354.264501
 20
269.515996
  0
VERTEX
  8
13 町界
 10
-354.708232
 20
266.384385
  0
SEQEND
  0
POLYLINE
  8
13 町界
  6
AIGENLINE004
 40
0.176390
 41
0.176390
 62
30
 66
1
 10
0
 20
0
 30
0
 70
128
  0
VERTEX
  8
13 町界
 10
-346.519533
 20
282.579881
  0
VERTEX
  8
13 町界
 10
-345.018151
 20
281.602156
  0
VERTEX
  8
13 町界
 10
-337.540869
 20
282.866514
  0
SEQEND
  0
POLYLINE
  8
13 町界
  6
AIGENLINE004
 40
0.176390
 41
0.176390
 62
30
 66
1
 10
0
 20
0
 30
0
 70
128
  0
VERTEX
  8
13 町界
 10
-354.708232
 20
266.384385
  0
VERTEX
  8
13 町界
 10
-344.941669
 20
260.760575
  0
SEQEND
  0
POLYLINE
  8
13 町界
  6
AIGENLINE004
 40
0.176390
 41
0.176390
 62
30
 66
1
 10
0
 20
0
 30
0
 70
128
  0
VERTEX
  8
13 町界
 10
-357.487408
 20
289.534883
  0
VERTEX
  8
13 町界
 10
-365.723994
 20
275.013370
  0
VERTEX
  8
13 町界
 10
-363.701711
 20
273.667362
  0
VERTEX
  8
13 町界
 10
-364.492709
 20
272.147377
  0
SEQEND
  0
POLYLINE
  8
13 町界
  6
AIGENLINE004
 40
0.176390
 41
0.176390
 62
30
 66
1
 10
0
 20
0
 30
0
 70
128
  0
VERTEX
  8
13 町界
 10
-364.492709
 20
272.147377
  0
VERTEX
  8
13 町界
 10
-354.708232
 20
266.384385
  0
SEQEND
  0
POLYLINE
  8
13 町界
  6
AIGENLINE004
 40
0.176390
 41
0.176390
 62
30
 66
1
 10
0
 20
0
 30
0
 70
128
  0
VERTEX
  8
13 町界
 10
-357.487408
 20
289.534883
  0
VERTEX
  8
13 町界
 10
-346.519533
 20
282.579881
  0
SEQEND
  0
POLYLINE
  8
13 町界
  6
AIGENLINE004
 40
0.176390
 41
0.176390
 62
30
 66
1
 10
0
 20
0
 30
0
 70
128
  0
VERTEX
  8
13 町界
 10
-373.034533
 20
280.668530
  0
VERTEX
  8
13 町界
 10
-364.441722
 20
294.212663
  0
SEQEND
  0
POLYLINE
  8
13 町界
  6
AIGENLINE004
 40
0.176390
 41
0.176390
 62
30
 66
1
 10
0
 20
0
 30
0
 70
128
  0
VERTEX
  8
13 町界
 10
-373.034533
 20
280.668530
  0
VERTEX
  8
13 町界
 10
-374.708860
 20
277.945509
  0
SEQEND
  0
POLYLINE
  8
13 町界
  6
AIGENLINE004
 40
0.176390
 41
0.176390
 62
30
 66
1
 10
0
 20
0
 30
0
 70
128
  0
VERTEX
  8
13 町界
 10
-364.441722
 20
294.212663
  0
VERTEX
  8
13 町界
 10
-357.487408
 20
289.534883
  0
SEQEND
  0
POLYLINE
  8
13 町界
  6
AIGENLINE004
 40
0.176390
 41
0.176390
 62
30
 66
1
 10
0
 20
0
 30
0
 70
128
  0
VERTEX
  8
13 町界
 10
-364.492709
 20
272.147377
  0
VERTEX
  8
13 町界
 10
-366.875352
 20
268.131748
  0
SEQEND
  0
POLYLINE
  8
13 町界
  6
AIGENLINE004
 40
0.176390
 41
0.176390
 62
30
 66
1
 10
0
 20
0
 30
0
 70
128
  0
VERTEX
  8
13 町界
 10
-354.708232
 20
266.384385
  0
VERTEX
  8
13 町界
 10
-357.130494
 20
262.430079
  0
SEQEND
  0
POLYLINE
  8
13 町界
  6
AIGENLINE004
 40
0.176390
 41
0.176390
 62
30
 66
1
 10
0
 20
0
 30
0
 70
128
  0
VERTEX
  8
13 町界
 10
-366.875352
 20
268.131748
  0
VERTEX
  8
13 町界
 10
-357.130494
 20
262.430079
  0
SEQEND
  0
POLYLINE
  8
13 町界
  6
AIGENLINE004
 40
0.176390
 41
0.176390
 62
30
 66
1
 10
0
 20
0
 30
0
 70
128
  0
VERTEX
  8
13 町界
 10
-395.209374
 20
293.975295
  0
VERTEX
  8
13 町界
 10
-394.397705
 20
287.886739
  0
VERTEX
  8
13 町界
 10
-393.546416
 20
287.488484
  0
VERTEX
  8
13 町界
 10
-393.380706
 20
279.238806
  0
VERTEX
  8
13 町界
 10
-392.479463
 20
278.491216
  0
VERTEX
  8
13 町界
 10
-392.521494
 20
274.141411
  0
SEQEND
  0
POLYLINE
  8
13 町界
  6
AIGENLINE004
 40
0.176390
 41
0.176390
 62
30
 66
1
 10
0
 20
0
 30
0
 70
128
  0
VERTEX
  8
13 町界
 10
-392.521494
 20
274.141411
  0
VERTEX
  8
13 町界
 10
-387.374144
 20
274.191709
  0
VERTEX
  8
13 町界
 10
-380.101846
 20
269.820545
  0
SEQEND
  0
POLYLINE
  8
13 町界
  6
AIGENLINE004
 40
0.176390
 41
0.176390
 62
30
 66
1
 10
0
 20
0
 30
0
 70
128
  0
VERTEX
  8
13 町界
 10
-395.209374
 20
293.975295
  0
VERTEX
  8
13 町界
 10
-373.034533
 20
280.668530
  0
SEQEND
  0
POLYLINE
  8
13 町界
  6
AIGENLINE004
 40
0.176390
 41
0.176390
 62
30
 66
1
 10
0
 20
0
 30
0
 70
128
  0
VERTEX
  8
13 町界
 10
-377.236887
 20
274.100069
  0
VERTEX
  8
13 町界
 10
-380.101846
 20
269.820545
  0
SEQEND
  0
POLYLINE
  8
13 町界
  6
AIGENLINE004
 40
0.176390
 41
0.176390
 62
30
 66
1
 10
0
 20
0
 30
0
 70
128
  0
VERTEX
  8
13 町界
 10
-377.236887
 20
274.100069
  0
VERTEX
  8
13 町界
 10
-366.875352
 20
268.131748
  0
SEQEND
  0
POLYLINE
  8
13 町界
  6
AIGENLINE004
 40
0.176390
 41
0.176390
 62
30
 66
1
 10
0
 20
0
 30
0
 70
128
  0
VERTEX
  8
13 町界
 10
-380.101846
 20
269.820545
  0
VERTEX
  8
13 町界
 10
-369.617666
 20
263.347169
  0
SEQEND
  0
POLYLINE
  8
13 町界
  6
AIGENLINE004
 40
0.176390
 41
0.176390
 62
30
 66
1
 10
0
 20
0
 30
0
 70
128
  0
VERTEX
  8
13 町界
 10
-366.875352
 20
268.131748
  0
VERTEX
  8
13 町界
 10
-369.617666
 20
263.347169
  0
SEQEND
  0
POLYLINE
  8
13 町界
  6
AIGENLINE004
 40
0.176390
 41
0.176390
 62
30
 66
1
 10
0
 20
0
 30
0
 70
128
  0
VERTEX
  8
13 町界
 10
-369.617666
 20
263.347169
  0
VERTEX
  8
13 町界
 10
-360.048508
 20
257.831537
  0
SEQEND
  0
POLYLINE
  8
13 町界
  6
AIGENLINE004
 40
0.176390
 41
0.176390
 62
30
 66
1
 10
0
 20
0
 30
0
 70
128
  0
VERTEX
  8
13 町界
 10
-357.130494
 20
262.430079
  0
VERTEX
  8
13 町界
 10
-360.048508
 20
257.831537
  0
SEQEND
  0
POLYLINE
  8
13 町界
  6
AIGENLINE004
 40
0.176390
 41
0.176390
 62
30
 66
1
 10
0
 20
0
 30
0
 70
128
  0
VERTEX
  8
13 町界
 10
-392.469817
 20
273.541271
  0
VERTEX
  8
13 町界
 10
-392.659988
 20
268.410803
  0
SEQEND
  0
POLYLINE
  8
13 町界
  6
AIGENLINE004
 40
0.176390
 41
0.176390
 62
30
 66
1
 10
0
 20
0
 30
0
 70
128
  0
VERTEX
  8
13 町界
 10
-392.469817
 20
273.541271
  0
VERTEX
  8
13 町界
 10
-392.521494
 20
274.141411
  0
SEQEND
  0
POLYLINE
  8
13 町界
  6
AIGENLINE004
 40
0.176390
 41
0.176390
 62
30
 66
1
 10
0
 20
0
 30
0
 70
128
  0
VERTEX
  8
13 町界
 10
-392.659988
 20
268.410803
  0
VERTEX
  8
13 町界
 10
-389.857729
 20
267.266335
  0
VERTEX
  8
13 町界
 10
-389.338895
 20
267.467530
  0
VERTEX
  8
13 町界
 10
-383.382287
 20
264.130245
  0
SEQEND
  0
POLYLINE
  8
13 町界
  6
AIGENLINE004
 40
0.176390
 41
0.176390
 62
30
 66
1
 10
0
 20
0
 30
0
 70
128
  0
VERTEX
  8
13 町界
 10
-380.101846
 20
269.820545
  0
VERTEX
  8
13 町界
 10
-383.132860
 20
264.509552
  0
SEQEND
  0
POLYLINE
  8
13 町界
  6
AIGENLINE004
 40
0.176390
 41
0.176390
 62
30
 66
1
 10
0
 20
0
 30
0
 70
128
  0
VERTEX
  8
13 町界
 10
-383.132860
 20
264.509552
  0
VERTEX
  8
13 町界
 10
-372.929801
 20
258.121616
  0
SEQEND
  0
POLYLINE
  8
13 町界
  6
AIGENLINE004
 40
0.176390
 41
0.176390
 62
30
 66
1
 10
0
 20
0
 30
0
 70
128
  0
VERTEX
  8
13 町界
 10
-369.617666
 20
263.347169
  0
VERTEX
  8
13 町界
 10
-372.929801
 20
258.121616
  0
SEQEND
  0
POLYLINE
  8
13 町界
  6
AIGENLINE004
 40
0.176390
 41
0.176390
 62
30
 66
1
 10
0
 20
0
 30
0
 70
128
  0
VERTEX
  8
13 町界
 10
-383.382287
 20
264.130245
  0
VERTEX
  8
13 町界
 10
-385.873796
 20
259.924790
  0
SEQEND
  0
POLYLINE
  8
13 町界
  6
AIGENLINE004
 40
0.176390
 41
0.176390
 62
30
 66
1
 10
0
 20
0
 30
0
 70
128
  0
VERTEX
  8
13 町界
 10
-383.382287
 20
264.130245
  0
VERTEX
  8
13 町界
 10
-383.132860
 20
264.509552
  0
SEQEND
  0
POLYLINE
  8
13 町界
  6
AIGENLINE004
 40
0.176390
 41
0.176390
 62
30
 66
1
 10
0
 20
0
 30
0
 70
128
  0
VERTEX
  8
13 町界
 10
-386.671685
 20
258.723133
  0
VERTEX
  8
13 町界
 10
-385.873796
 20
259.924790
  0
SEQEND
  0
POLYLINE
  8
13 町界
  6
AIGENLINE004
 40
0.176390
 41
0.176390
 62
30
 66
1
 10
0
 20
0
 30
0
 70
128
  0
VERTEX
  8
13 町界
 10
-394.802161
 20
264.457875
  0
VERTEX
  8
13 町界
 10
-397.174125
 20
260.252765
  0
SEQEND
  0
POLYLINE
  8
13 町界
  6
AIGENLINE004
 40
0.176390
 41
0.176390
 62
30
 66
1
 10
0
 20
0
 30
0
 70
128
  0
VERTEX
  8
13 町界
 10
-430.600030
 20
157.824263
  0
VERTEX
  8
13 町界
 10
-420.505492
 20
163.213460
  0
SEQEND
  0
POLYLINE
  8
13 町界
  6
AIGENLINE004
 40
0.176390
 41
0.176390
 62
30
 66
1
 10
0
 20
0
 30
0
 70
128
  0
VERTEX
  8
13 町界
 10
-420.505492
 20
163.213460
  0
VERTEX
  8
13 町界
 10
-417.579209
 20
159.749050
  0
VERTEX
  8
13 町界
 10
-416.676933
 20
158.791308
  0
SEQEND
  0
POLYLINE
  8
13 町界
  6
AIGENLINE004
 40
0.176390
 41
0.176390
 62
30
 66
1
 10
0
 20
0
 30
0
 70
128
  0
VERTEX
  8
13 町界
 10
-398.224541
 20
157.824263
  0
VERTEX
  8
13 町界
 10
-405.492360
 20
166.072219
  0
SEQEND
  0
POLYLINE
  8
13 町界
  6
AIGENLINE004
 40
0.176390
 41
0.176390
 62
30
 66
1
 10
0
 20
0
 30
0
 70
128
  0
VERTEX
  8
13 町界
 10
-341.724619
 20
157.824263
  0
VERTEX
  8
13 町界
 10
-332.905119
 20
166.074975
  0
SEQEND
  0
POLYLINE
  8
13 町界
  6
AIGENLINE004
 40
0.176390
 41
0.176390
 62
30
 66
1
 10
0
 20
0
 30
0
 70
128
  0
VERTEX
  8
13 町界
 10
-332.905119
 20
166.074975
  0
VERTEX
  8
13 町界
 10
-328.191510
 20
163.741252
  0
VERTEX
  8
13 町界
 10
-319.882920
 20
159.157868
  0
VERTEX
  8
13 町界
 10
-318.321249
 20
157.824263
  0
SEQEND
  0
POLYLINE
  8
13 町界
  6
AIGENLINE004
 40
0.176390
 41
0.176390
 62
30
 66
1
 10
0
 20
0
 30
0
 70
128
  0
VERTEX
  8
13 町界
 10
-338.703251
 20
170.021012
  0
VERTEX
  8
13 町界
 10
-338.799025
 20
167.821305
  0
VERTEX
  8
13 町界
 10
-347.983708
 20
159.803483
  0
VERTEX
  8
13 町界
 10
-350.224412
 20
157.824263
  0
SEQEND
  0
POLYLINE
  8
13 町界
  6
AIGENLINE004
 40
0.176390
 41
0.176390
 62
30
 66
1
 10
0
 20
0
 30
0
 70
128
  0
VERTEX
  8
13 町界
 10
-338.703251
 20
170.021012
  0
VERTEX
  8
13 町界
 10
-332.905119
 20
166.074975
  0
SEQEND
  0
POLYLINE
  8
13 町界
  6
AIGENLINE004
 40
0.176390
 41
0.176390
 62
30
 66
1
 10
0
 20
0
 30
0
 70
128
  0
VERTEX
  8
13 町界
 10
-414.712183
 20
176.723832
  0
VERTEX
  8
13 町界
 10
-413.228715
 20
175.026767
  0
VERTEX
  8
13 町界
 10
-405.492360
 20
166.072219
  0
SEQEND
  0
POLYLINE
  8
13 町界
  6
AIGENLINE004
 40
0.176390
 41
0.176390
 62
30
 66
1
 10
0
 20
0
 30
0
 70
128
  0
VERTEX
  8
13 町界
 10
-353.948239
 20
179.492328
  0
VERTEX
  8
13 町界
 10
-350.717064
 20
177.397697
  0
VERTEX
  8
13 町界
 10
-342.707855
 20
172.713026
  0
VERTEX
  8
13 町界
 10
-338.703251
 20
170.021012
  0
SEQEND
  0
POLYLINE
  8
13 町界
  6
AIGENLINE004
 40
0.176390
 41
0.176390
 62
30
 66
1
 10
0
 20
0
 30
0
 70
128
  0
VERTEX
  8
13 町界
 10
-353.948239
 20
179.492328
  0
VERTEX
  8
13 町界
 10
-354.519095
 20
178.789524
  0
VERTEX
  8
13 町界
 10
-356.514507
 20
176.286302
  0
VERTEX
  8
13 町界
 10
-358.710425
 20
174.282966
  0
VERTEX
  8
13 町界
 10
-363.352376
 20
170.322804
  0
SEQEND
  0
POLYLINE
  8
13 町界
  6
AIGENLINE004
 40
0.176390
 41
0.176390
 62
30
 66
1
 10
0
 20
0
 30
0
 70
128
  0
VERTEX
  8
13 町界
 10
-365.330562
 20
184.968686
  0
VERTEX
  8
13 町界
 10
-355.322496
 20
180.388058
  0
VERTEX
  8
13 町界
 10
-353.948239
 20
179.492328
  0
SEQEND
  0
POLYLINE
  8
13 町界
  6
AIGENLINE004
 40
0.176390
 41
0.176390
 62
30
 66
1
 10
0
 20
0
 30
0
 70
128
  0
VERTEX
  8
13 町界
 10
-365.330562
 20
184.968686
  0
VERTEX
  8
13 町界
 10
-366.325512
 20
182.466842
  0
VERTEX
  8
13 町界
 10
-367.623632
 20
181.364405
  0
VERTEX
  8
13 町界
 10
-369.520513
 20
179.911254
  0
VERTEX
  8
13 町界
 10
-368.568283
 20
178.812262
  0
VERTEX
  8
13 町界
 10
-367.265684
 20
177.265404
  0
VERTEX
  8
13 町界
 10
-368.363643
 20
176.462692
  0
SEQEND
  0
POLYLINE
  8
13 町界
  6
AIGENLINE004
 40
0.176390
 41
0.176390
 62
30
 66
1
 10
0
 20
0
 30
0
 70
128
  0
VERTEX
  8
13 町界
 10
-422.628717
 20
185.508881
  0
VERTEX
  8
13 町界
 10
-414.712183
 20
176.723832
  0
SEQEND
  0
POLYLINE
  8
13 町界
  6
AIGENLINE004
 40
0.176390
 41
0.176390
 62
30
 66
1
 10
0
 20
0
 30
0
 70
128
  0
VERTEX
  8
13 町界
 10
-370.135811
 20
187.559414
  0
VERTEX
  8
13 町界
 10
-373.899946
 20
183.319164
  0
SEQEND
  0
POLYLINE
  8
13 町界
  6
AIGENLINE004
 40
0.176390
 41
0.176390
 62
30
 66
1
 10
0
 20
0
 30
0
 70
128
  0
VERTEX
  8
13 町界
 10
-370.135811
 20
187.559414
  0
VERTEX
  8
13 町界
 10
-365.330562
 20
184.968686
  0
SEQEND
  0
POLYLINE
  8
13 町界
  6
AIGENLINE004
 40
0.176390
 41
0.176390
 62
30
 66
1
 10
0
 20
0
 30
0
 70
128
  0
VERTEX
  8
13 町界
 10
-375.190487
 20
190.549087
  0
VERTEX
  8
13 町界
 10
-370.135811
 20
187.559414
  0
SEQEND
  0
POLYLINE
  8
13 町界
  6
AIGENLINE004
 40
0.176390
 41
0.176390
 62
30
 66
1
 10
0
 20
0
 30
0
 70
128
  0
VERTEX
  8
13 町界
 10
-381.568088
 20
194.706655
  0
VERTEX
  8
13 町界
 10
-391.428703
 20
186.198593
  0
SEQEND
  0
POLYLINE
  8
13 町界
  6
AIGENLINE004
 40
0.176390
 41
0.176390
 62
30
 66
1
 10
0
 20
0
 30
0
 70
128
  0
VERTEX
  8
13 町界
 10
-381.568088
 20
194.706655
  0
VERTEX
  8
13 町界
 10
-375.190487
 20
190.549087
  0
SEQEND
  0
POLYLINE
  8
13 町界
  6
AIGENLINE004
 40
0.176390
 41
0.176390
 62
30
 66
1
 10
0
 20
0
 30
0
 70
128
  0
VERTEX
  8
13 町界
 10
-370.401774
 20
197.910614
  0
VERTEX
  8
13 町界
 10
-375.190487
 20
190.549087
  0
SEQEND
  0
POLYLINE
  8
13 町界
  6
AIGENLINE004
 40
0.176390
 41
0.176390
 62
30
 66
1
 10
0
 20
0
 30
0
 70
128
  0
VERTEX
  8
13 町界
 10
-388.075226
 20
199.647986
  0
VERTEX
  8
13 町界
 10
-396.592933
 20
192.188274
  0
SEQEND
  0
POLYLINE
  8
13 町界
  6
AIGENLINE004
 40
0.176390
 41
0.176390
 62
30
 66
1
 10
0
 20
0
 30
0
 70
128
  0
VERTEX
  8
13 町界
 10
-388.075226
 20
199.647986
  0
VERTEX
  8
13 町界
 10
-386.119777
 20
198.081491
  0
SEQEND
  0
POLYLINE
  8
13 町界
  6
AIGENLINE004
 40
0.176390
 41
0.176390
 62
30
 66
1
 10
0
 20
0
 30
0
 70
128
  0
VERTEX
  8
13 町界
 10
-367.141316
 20
203.027991
  0
VERTEX
  8
13 町界
 10
-370.401774
 20
197.910614
  0
SEQEND
  0
POLYLINE
  8
13 町界
  6
AIGENLINE004
 40
0.176390
 41
0.176390
 62
30
 66
1
 10
0
 20
0
 30
0
 70
128
  0
VERTEX
  8
13 町界
 10
-396.549525
 20
207.643070
  0
VERTEX
  8
13 町界
 10
-404.408526
 20
200.492384
  0
SEQEND
  0
POLYLINE
  8
13 町界
  6
AIGENLINE004
 40
0.176390
 41
0.176390
 62
30
 66
1
 10
0
 20
0
 30
0
 70
128
  0
VERTEX
  8
13 町界
 10
-396.549525
 20
207.643070
  0
VERTEX
  8
13 町界
 10
-395.635880
 20
206.565437
  0
SEQEND
  0
POLYLINE
  8
13 町界
  6
AIGENLINE004
 40
0.176390
 41
0.176390
 62
30
 66
1
 10
0
 20
0
 30
0
 70
128
  0
VERTEX
  8
13 町界
 10
-363.477089
 20
208.870909
  0
VERTEX
  8
13 町界
 10
-367.141316
 20
203.027991
  0
SEQEND
  0
POLYLINE
  8
13 町界
  6
AIGENLINE004
 40
0.176390
 41
0.176390
 62
30
 66
1
 10
0
 20
0
 30
0
 70
128
  0
VERTEX
  8
13 町界
 10
-335.001817
 20
209.336689
  0
VERTEX
  8
13 町界
 10
-353.948239
 20
179.492328
  0
SEQEND
  0
POLYLINE
  8
13 町界
  6
AIGENLINE004
 40
0.176390
 41
0.176390
 62
30
 66
1
 10
0
 20
0
 30
0
 70
128
  0
VERTEX
  8
13 町界
 10
-360.186657
 20
213.977262
  0
VERTEX
  8
13 町界
 10
-363.477089
 20
208.870909
  0
SEQEND
  0
POLYLINE
  8
13 町界
  6
AIGENLINE004
 40
0.176390
 41
0.176390
 62
30
 66
1
 10
0
 20
0
 30
0
 70
128
  0
VERTEX
  8
13 町界
 10
-404.555288
 20
217.306623
  0
VERTEX
  8
13 町界
 10
-412.675774
 20
209.625735
  0
SEQEND
  0
POLYLINE
  8
13 町界
  6
AIGENLINE004
 40
0.176390
 41
0.176390
 62
30
 66
1
 10
0
 20
0
 30
0
 70
128
  0
VERTEX
  8
13 町界
 10
-404.555288
 20
217.306623
  0
VERTEX
  8
13 町界
 10
-402.518190
 20
214.476460
  0
SEQEND
  0
POLYLINE
  8
13 町界
  6
AIGENLINE004
 40
0.176390
 41
0.176390
 62
30
 66
1
 10
0
 20
0
 30
0
 70
128
  0
VERTEX
  8
13 町界
 10
-417.027301
 20
218.442823
  0
VERTEX
  8
13 町界
 10
-428.822005
 20
208.194977
  0
SEQEND
  0
POLYLINE
  8
13 町界
  6
AIGENLINE004
 40
0.176390
 41
0.176390
 62
30
 66
1
 10
0
 20
0
 30
0
 70
128
  0
VERTEX
  8
13 町界
 10
-356.347763
 20
219.634144
  0
VERTEX
  8
13 町界
 10
-360.186657
 20
213.977262
  0
SEQEND
  0
POLYLINE
  8
13 町界
  6
AIGENLINE004
 40
0.176390
 41
0.176390
 62
30
 66
1
 10
0
 20
0
 30
0
 70
128
  0
VERTEX
  8
13 町界
 10
-406.559657
 20
219.800199
  0
VERTEX
  8
13 町界
 10
-404.555288
 20
217.306623
  0
SEQEND
  0
POLYLINE
  8
13 町界
  6
AIGENLINE004
 40
0.176390
 41
0.176390
 62
30
 66
1
 10
0
 20
0
 30
0
 70
128
  0
VERTEX
  8
13 町界
 10
-355.002101
 20
221.686056
  0
VERTEX
  8
13 町界
 10
-335.001817
 20
209.336689
  0
SEQEND
  0
POLYLINE
  8
13 町界
  6
AIGENLINE004
 40
0.176390
 41
0.176390
 62
30
 66
1
 10
0
 20
0
 30
0
 70
128
  0
VERTEX
  8
13 町界
 10
-355.002101
 20
221.686056
  0
VERTEX
  8
13 町界
 10
-356.347763
 20
219.634144
  0
SEQEND
  0
POLYLINE
  8
13 町界
  6
AIGENLINE004
 40
0.176390
 41
0.176390
 62
30
 66
1
 10
0
 20
0
 30
0
 70
128
  0
VERTEX
  8
13 町界
 10
-423.445899
 20
223.662175
  0
VERTEX
  8
13 町界
 10
-417.027301
 20
218.442823
  0
SEQEND
  0
POLYLINE
  8
13 町界
  6
AIGENLINE004
 40
0.176390
 41
0.176390
 62
30
 66
1
 10
0
 20
0
 30
0
 70
128
  0
VERTEX
  8
13 町界
 10
-423.445899
 20
223.662175
  0
VERTEX
  8
13 町界
 10
-434.269079
 20
214.208774
  0
VERTEX
  8
13 町界
 10
-434.355552
 20
214.135048
  0
SEQEND
  0
POLYLINE
  8
13 町界
  6
AIGENLINE004
 40
0.176390
 41
0.176390
 62
30
 66
1
 10
0
 20
0
 30
0
 70
128
  0
VERTEX
  8
13 町界
 10
-410.204591
 20
224.429748
  0
VERTEX
  8
13 町界
 10
-417.027301
 20
218.442823
  0
SEQEND
  0
POLYLINE
  8
13 町界
  6
AIGENLINE004
 40
0.176390
 41
0.176390
 62
30
 66
1
 10
0
 20
0
 30
0
 70
128
  0
VERTEX
  8
13 町界
 10
-410.204591
 20
224.429748
  0
VERTEX
  8
13 町界
 10
-408.297030
 20
222.063641
  0
SEQEND
  0
POLYLINE
  8
13 町界
  6
AIGENLINE004
 40
0.176390
 41
0.176390
 62
30
 66
1
 10
0
 20
0
 30
0
 70
128
  0
VERTEX
  8
13 町界
 10
-352.828232
 20
224.820424
  0
VERTEX
  8
13 町界
 10
-355.002101
 20
221.686056
  0
SEQEND
  0
POLYLINE
  8
13 町界
  6
AIGENLINE004
 40
0.176390
 41
0.176390
 62
30
 66
1
 10
0
 20
0
 30
0
 70
128
  0
VERTEX
  8
13 町界
 10
-367.141316
 20
203.027991
  0
VERTEX
  8
13 町界
 10
-377.615850
 20
210.169719
  0
SEQEND
  0
POLYLINE
  8
13 町界
  6
AIGENLINE004
 40
0.176390
 41
0.176390
 62
30
 66
1
 10
0
 20
0
 30
0
 70
128
  0
VERTEX
  8
13 町界
 10
-429.191321
 20
228.333065
  0
VERTEX
  8
13 町界
 10
-433.805022
 20
223.780688
  0
VERTEX
  8
13 町界
 10
-434.355552
 20
223.355905
  0
SEQEND
  0
POLYLINE
  8
13 町界
  6
AIGENLINE004
 40
0.176390
 41
0.176390
 62
30
 66
1
 10
0
 20
0
 30
0
 70
128
  0
VERTEX
  8
13 町界
 10
-429.191321
 20
228.333065
  0
VERTEX
  8
13 町界
 10
-423.445899
 20
223.662175
  0
SEQEND
  0
POLYLINE
  8
13 町界
  6
AIGENLINE004
 40
0.176390
 41
0.176390
 62
30
 66
1
 10
0
 20
0
 30
0
 70
128
  0
VERTEX
  8
13 町界
 10
-349.618760
 20
230.076295
  0
VERTEX
  8
13 町界
 10
-352.828232
 20
224.820424
  0
SEQEND
  0
POLYLINE
  8
13 町界
  6
AIGENLINE004
 40
0.176390
 41
0.176390
 62
30
 66
1
 10
0
 20
0
 30
0
 70
128
  0
VERTEX
  8
13 町界
 10
-421.166265
 20
256.857258
  0
VERTEX
  8
13 町界
 10
-418.361595
 20
254.262395
  0
VERTEX
  8
13 町界
 10
-410.393039
 20
244.228836
  0
SEQEND
  0
POLYLINE
  8
13 町界
  6
AIGENLINE004
 40
0.176390
 41
0.176390
 62
30
 66
1
 10
0
 20
0
 30
0
 70
128
  0
VERTEX
  8
13 町界
 10
-347.126563
 20
234.201478
  0
VERTEX
  8
13 町界
 10
-349.618760
 20
230.076295
  0
SEQEND
  0
POLYLINE
  8
13 町界
  6
AIGENLINE004
 40
0.176390
 41
0.176390
 62
30
 66
1
 10
0
 20
0
 30
0
 70
128
  0
VERTEX
  8
13 町界
 10
-343.537440
 20
239.808062
  0
VERTEX
  8
13 町界
 10
-347.126563
 20
234.201478
  0
SEQEND
  0
POLYLINE
  8
13 町界
  6
AIGENLINE004
 40
0.176390
 41
0.176390
 62
30
 66
1
 10
0
 20
0
 30
0
 70
128
  0
VERTEX
  8
13 町界
 10
-314.282538
 20
245.752267
  0
VERTEX
  8
13 町界
 10
-313.930792
 20
243.672794
  0
VERTEX
  8
13 町界
 10
-335.001817
 20
209.336689
  0
SEQEND
  0
POLYLINE
  8
13 町界
  6
AIGENLINE004
 40
0.176390
 41
0.176390
 62
30
 66
1
 10
0
 20
0
 30
0
 70
128
  0
VERTEX
  8
13 町界
 10
-340.017908
 20
245.500084
  0
VERTEX
  8
13 町界
 10
-343.537440
 20
239.808062
  0
SEQEND
  0
POLYLINE
  8
13 町界
  6
AIGENLINE004
 40
0.176390
 41
0.176390
 62
30
 66
1
 10
0
 20
0
 30
0
 70
128
  0
VERTEX
  8
13 町界
 10
-428.048231
 20
247.644325
  0
VERTEX
  8
13 町界
 10
-434.109570
 20
239.949312
  0
SEQEND
  0
POLYLINE
  8
13 町界
  6
AIGENLINE004
 40
0.176390
 41
0.176390
 62
30
 66
1
 10
0
 20
0
 30
0
 70
128
  0
VERTEX
  8
13 町界
 10
-428.048231
 20
247.644325
  0
VERTEX
  8
13 町界
 10
-423.508256
 20
242.502832
  0
VERTEX
  8
13 町界
 10
-419.848852
 20
237.380632
  0
SEQEND
  0
POLYLINE
  8
13 町界
  6
AIGENLINE004
 40
0.176390
 41
0.176390
 62
30
 66
1
 10
0
 20
0
 30
0
 70
128
  0
VERTEX
  8
13 町界
 10
-427.232428
 20
248.821866
  0
VERTEX
  8
13 町界
 10
-428.048231
 20
247.644325
  0
SEQEND
  0
POLYLINE
  8
13 町界
  6
AIGENLINE004
 40
0.176390
 41
0.176390
 62
30
 66
1
 10
0
 20
0
 30
0
 70
128
  0
VERTEX
  8
13 町界
 10
-337.555338
 20
249.048900
  0
VERTEX
  8
13 町界
 10
-340.017908
 20
245.500084
  0
SEQEND
  0
POLYLINE
  8
13 町界
  6
AIGENLINE004
 40
0.176390
 41
0.176390
 62
30
 66
1
 10
0
 20
0
 30
0
 70
128
  0
VERTEX
  8
13 町界
 10
-423.758371
 20
252.852998
  0
VERTEX
  8
13 町界
 10
-414.936115
 20
240.900164
  0
SEQEND
  0
POLYLINE
  8
13 町界
  6
AIGENLINE004
 40
0.176390
 41
0.176390
 62
30
 66
1
 10
0
 20
0
 30
0
 70
128
  0
VERTEX
  8
13 町界
 10
-423.758371
 20
252.852998
  0
VERTEX
  8
13 町界
 10
-427.232428
 20
248.821866
  0
SEQEND
  0
POLYLINE
  8
13 町界
  6
AIGENLINE004
 40
0.176390
 41
0.176390
 62
30
 66
1
 10
0
 20
0
 30
0
 70
128
  0
VERTEX
  8
13 町界
 10
-334.365849
 20
254.224499
  0
VERTEX
  8
13 町界
 10
-337.555338
 20
249.048900
  0
SEQEND
  0
POLYLINE
  8
13 町界
  6
AIGENLINE004
 40
0.176390
 41
0.176390
 62
30
 66
1
 10
0
 20
0
 30
0
 70
128
  0
VERTEX
  8
13 町界
 10
-334.365849
 20
254.224499
  0
VERTEX
  8
13 町界
 10
-333.369865
 20
255.926387
  0
VERTEX
  8
13 町界
 10
-316.706867
 20
246.047858
  0
VERTEX
  8
13 町界
 10
-314.282538
 20
245.752267
  0
SEQEND
  0
POLYLINE
  8
13 町界
  6
AIGENLINE004
 40
0.176390
 41
0.176390
 62
30
 66
1
 10
0
 20
0
 30
0
 70
128
  0
VERTEX
  8
13 町界
 10
-421.166265
 20
256.857258
  0
VERTEX
  8
13 町界
 10
-423.758371
 20
252.852998
  0
SEQEND
  0
POLYLINE
  8
13 町界
  6
AIGENLINE004
 40
0.176390
 41
0.176390
 62
30
 66
1
 10
0
 20
0
 30
0
 70
128
  0
VERTEX
  8
13 町界
 10
-432.232671
 20
167.127802
  0
VERTEX
  8
13 町界
 10
-426.798343
 20
169.901122
  0
VERTEX
  8
13 町界
 10
-425.866783
 20
168.973007
  0
SEQEND
  0
POLYLINE
  8
13 町界
  6
AIGENLINE004
 40
0.176390
 41
0.176390
 62
30
 66
1
 10
0
 20
0
 30
0
 70
128
  0
VERTEX
  8
13 町界
 10
-430.123914
 20
193.671052
  0
VERTEX
  8
13 町界
 10
-427.683049
 20
190.881196
  0
SEQEND
  0
POLYLINE
  8
13 町界
  6
AIGENLINE004
 40
0.176390
 41
0.176390
 62
30
 66
1
 10
0
 20
0
 30
0
 70
128
  0
VERTEX
  8
13 町界
 10
-432.847280
 20
197.004548
  0
VERTEX
  8
13 町界
 10
-427.530086
 20
201.798084
  0
VERTEX
  8
13 町界
 10
-424.964162
 20
203.982977
  0
SEQEND
  0
POLYLINE
  8
13 町界
  6
AIGENLINE004
 40
0.176390
 41
0.176390
 62
30
 66
1
 10
0
 20
0
 30
0
 70
128
  0
VERTEX
  8
13 町界
 10
-429.191321
 20
228.333065
  0
VERTEX
  8
13 町界
 10
-432.169969
 20
230.804248
  0
VERTEX
  8
13 町界
 10
-434.294918
 20
236.320225
  0
VERTEX
  8
13 町界
 10
-434.355552
 20
236.350198
  0
SEQEND
  0
POLYLINE
  8
13 町界
  6
AIGENLINE004
 40
0.176390
 41
0.176390
 62
30
 66
1
 10
0
 20
0
 30
0
 70
128
  0
VERTEX
  8
13 町界
 10
-416.067492
 20
257.366446
  0
VERTEX
  8
13 町界
 10
-411.156133
 20
251.177293
  0
VERTEX
  8
13 町界
 10
-409.452867
 20
249.780298
  0
VERTEX
  8
13 町界
 10
-405.678396
 20
247.365271
  0
SEQEND
  0
POLYLINE
  8
13 町界
  6
AIGENLINE004
 40
0.176390
 41
0.176390
 62
30
 66
1
 10
0
 20
0
 30
0
 70
128
  0
VERTEX
  8
13 町界
 10
-397.174125
 20
260.252765
  0
VERTEX
  8
13 町界
 10
-388.764249
 20
255.119541
  0
SEQEND
  0
POLYLINE
  8
13 町界
  6
AIGENLINE004
 40
0.176390
 41
0.176390
 62
30
 66
1
 10
0
 20
0
 30
0
 70
128
  0
VERTEX
  8
13 町界
 10
-385.873796
 20
259.924790
  0
VERTEX
  8
13 町界
 10
-375.753419
 20
253.598866
  0
SEQEND
  0
POLYLINE
  8
13 町界
  6
AIGENLINE004
 40
0.176390
 41
0.176390
 62
30
 66
1
 10
0
 20
0
 30
0
 70
128
  0
VERTEX
  8
13 町界
 10
-418.573125
 20
260.161814
  0
VERTEX
  8
13 町界
 10
-421.166265
 20
256.857258
  0
SEQEND
  0
POLYLINE
  8
13 町界
  6
AIGENLINE004
 40
0.176390
 41
0.176390
 62
30
 66
1
 10
0
 20
0
 30
0
 70
128
  0
VERTEX
  8
13 町界
 10
-417.378703
 20
263.163889
  0
VERTEX
  8
13 町界
 10
-415.676815
 20
262.266781
  0
VERTEX
  8
13 町界
 10
-402.019682
 20
251.920405
  0
SEQEND
  0
POLYLINE
  8
13 町界
  6
AIGENLINE004
 40
0.176390
 41
0.176390
 62
30
 66
1
 10
0
 20
0
 30
0
 70
128
  0
VERTEX
  8
13 町界
 10
-372.929801
 20
258.121616
  0
VERTEX
  8
13 町界
 10
-363.307245
 20
252.333130
  0
SEQEND
  0
POLYLINE
  8
13 町界
  6
AIGENLINE004
 40
0.176390
 41
0.176390
 62
30
 66
1
 10
0
 20
0
 30
0
 70
128
  0
VERTEX
  8
13 町界
 10
-416.584948
 20
266.365092
  0
VERTEX
  8
13 町界
 10
-411.280846
 20
264.175376
  0
VERTEX
  8
13 町界
 10
-399.586740
 20
256.598874
  0
SEQEND
  0
POLYLINE
  8
13 町界
  6
AIGENLINE004
 40
0.176390
 41
0.176390
 62
30
 66
1
 10
0
 20
0
 30
0
 70
128
  0
VERTEX
  8
13 町界
 10
-360.048508
 20
257.831537
  0
VERTEX
  8
13 町界
 10
-350.166190
 20
251.850124
  0
SEQEND
  0
POLYLINE
  8
13 町界
  6
AIGENLINE004
 40
0.176390
 41
0.176390
 62
30
 66
1
 10
0
 20
0
 30
0
 70
128
  0
VERTEX
  8
13 町界
 10
-344.941669
 20
260.760575
  0
VERTEX
  8
13 町界
 10
-334.365849
 20
254.224499
  0
SEQEND
  0
POLYLINE
  8
13 町界
  6
AIGENLINE004
 40
0.176390
 41
0.176390
 62
30
 66
1
 10
0
 20
0
 30
0
 70
128
  0
VERTEX
  8
13 町界
 10
-357.130494
 20
262.430079
  0
VERTEX
  8
13 町界
 10
-347.466251
 20
256.581648
  0
SEQEND
  0
POLYLINE
  8
13 町界
  6
AIGENLINE004
 40
0.176390
 41
0.176390
 62
30
 66
1
 10
0
 20
0
 30
0
 70
128
  0
VERTEX
  8
13 町界
 10
-427.232428
 20
248.821866
  0
VERTEX
  8
13 町界
 10
-434.355552
 20
260.254143
  0
SEQEND
  0
POLYLINE
  8
13 町界
  6
AIGENLINE004
 40
0.176390
 41
0.176390
 62
30
 66
1
 10
0
 20
0
 30
0
 70
128
  0
VERTEX
  8
13 町界
 10
-403.879356
 20
226.542293
  0
VERTEX
  8
13 町界
 10
-405.005909
 20
224.989924
  0
SEQEND
  0
POLYLINE
  8
13 町界
  6
AIGENLINE004
 40
0.176390
 41
0.176390
 62
30
 66
1
 10
0
 20
0
 30
0
 70
128
  0
VERTEX
  8
13 町界
 10
-347.466251
 20
256.581648
  0
VERTEX
  8
13 町界
 10
-344.941669
 20
260.760575
  0
SEQEND
  0
POLYLINE
  8
13 町界
  6
AIGENLINE004
 40
0.176390
 41
0.176390
 62
30
 66
1
 10
0
 20
0
 30
0
 70
128
  0
VERTEX
  8
13 町界
 10
-347.466251
 20
256.581648
  0
VERTEX
  8
13 町界
 10
-347.883110
 20
255.718991
  0
SEQEND
  0
POLYLINE
  8
13 町界
  6
AIGENLINE004
 40
0.176390
 41
0.176390
 62
30
 66
1
 10
0
 20
0
 30
0
 70
128
  0
VERTEX
  8
13 町界
 10
-347.883110
 20
255.718991
  0
VERTEX
  8
13 町界
 10
-350.166190
 20
251.850124
  0
SEQEND
  0
POLYLINE
  8
13 町界
  6
AIGENLINE004
 40
0.176390
 41
0.176390
 62
30
 66
1
 10
0
 20
0
 30
0
 70
128
  0
VERTEX
  8
13 町界
 10
-347.883110
 20
255.718991
  0
VERTEX
  8
13 町界
 10
-337.555338
 20
249.048900
  0
SEQEND
  0
POLYLINE
  8
13 町界
  6
AIGENLINE004
 40
0.176390
 41
0.176390
 62
30
 66
1
 10
0
 20
0
 30
0
 70
128
  0
VERTEX
  8
13 町界
 10
-350.166190
 20
251.850124
  0
VERTEX
  8
13 町界
 10
-340.017908
 20
245.500084
  0
SEQEND
  0
POLYLINE
  8
13 町界
  6
AIGENLINE004
 40
0.176390
 41
0.176390
 62
30
 66
1
 10
0
 20
0
 30
0
 70
128
  0
VERTEX
  8
13 町界
 10
-363.307245
 20
252.333130
  0
VERTEX
  8
13 町界
 10
-360.048508
 20
257.831537
  0
SEQEND
  0
POLYLINE
  8
13 町界
  6
AIGENLINE004
 40
0.176390
 41
0.176390
 62
30
 66
1
 10
0
 20
0
 30
0
 70
128
  0
VERTEX
  8
13 町界
 10
-363.307245
 20
252.333130
  0
VERTEX
  8
13 町界
 10
-353.549639
 20
246.288327
  0
SEQEND
  0
POLYLINE
  8
13 町界
  6
AIGENLINE004
 40
0.176390
 41
0.176390
 62
30
 66
1
 10
0
 20
0
 30
0
 70
128
  0
VERTEX
  8
13 町界
 10
-350.166190
 20
251.850124
  0
VERTEX
  8
13 町界
 10
-353.549639
 20
246.288327
  0
SEQEND
  0
POLYLINE
  8
13 町界
  6
AIGENLINE004
 40
0.176390
 41
0.176390
 62
30
 66
1
 10
0
 20
0
 30
0
 70
128
  0
VERTEX
  8
13 町界
 10
-353.549639
 20
246.288327
  0
VERTEX
  8
13 町界
 10
-343.537440
 20
239.808062
  0
SEQEND
  0
POLYLINE
  8
13 町界
  6
AIGENLINE004
 40
0.176390
 41
0.176390
 62
30
 66
1
 10
0
 20
0
 30
0
 70
128
  0
VERTEX
  8
13 町界
 10
-375.753419
 20
253.598866
  0
VERTEX
  8
13 町界
 10
-372.929801
 20
258.121616
  0
SEQEND
  0
POLYLINE
  8
13 町界
  6
AIGENLINE004
 40
0.176390
 41
0.176390
 62
30
 66
1
 10
0
 20
0
 30
0
 70
128
  0
VERTEX
  8
13 町界
 10
-363.307245
 20
252.333130
  0
VERTEX
  8
13 町界
 10
-366.370987
 20
247.593338
  0
SEQEND
  0
POLYLINE
  8
13 町界
  6
AIGENLINE004
 40
0.176390
 41
0.176390
 62
30
 66
1
 10
0
 20
0
 30
0
 70
128
  0
VERTEX
  8
13 町界
 10
-366.370987
 20
247.593338
  0
VERTEX
  8
13 町界
 10
-356.309867
 20
241.533376
  0
SEQEND
  0
POLYLINE
  8
13 町界
  6
AIGENLINE004
 40
0.176390
 41
0.176390
 62
30
 66
1
 10
0
 20
0
 30
0
 70
128
  0
VERTEX
  8
13 町界
 10
-375.753419
 20
253.598866
  0
VERTEX
  8
13 町界
 10
-366.370987
 20
247.593338
  0
SEQEND
  0
POLYLINE
  8
13 町界
  6
AIGENLINE004
 40
0.176390
 41
0.176390
 62
30
 66
1
 10
0
 20
0
 30
0
 70
128
  0
VERTEX
  8
13 町界
 10
-353.549639
 20
246.288327
  0
VERTEX
  8
13 町界
 10
-356.309867
 20
241.533376
  0
SEQEND
  0
POLYLINE
  8
13 町界
  6
AIGENLINE004
 40
0.176390
 41
0.176390
 62
30
 66
1
 10
0
 20
0
 30
0
 70
128
  0
VERTEX
  8
13 町界
 10
-356.309867
 20
241.533376
  0
VERTEX
  8
13 町界
 10
-350.633003
 20
237.694138
  0
VERTEX
  8
13 町界
 10
-350.580637
 20
236.374658
  0
VERTEX
  8
13 町界
 10
-347.126563
 20
234.201478
  0
SEQEND
  0
POLYLINE
  8
13 町界
  6
AIGENLINE004
 40
0.176390
 41
0.176390
 62
30
 66
1
 10
0
 20
0
 30
0
 70
128
  0
VERTEX
  8
13 町界
 10
-388.764249
 20
255.119541
  0
VERTEX
  8
13 町界
 10
-389.133566
 20
254.599328
  0
SEQEND
  0
POLYLINE
  8
13 町界
  6
AIGENLINE004
 40
0.176390
 41
0.176390
 62
30
 66
1
 10
0
 20
0
 30
0
 70
128
  0
VERTEX
  8
13 町界
 10
-375.753419
 20
253.598866
  0
VERTEX
  8
13 町界
 10
-379.088293
 20
248.535922
  0
SEQEND
  0
POLYLINE
  8
13 町界
  6
AIGENLINE004
 40
0.176390
 41
0.176390
 62
30
 66
1
 10
0
 20
0
 30
0
 70
128
  0
VERTEX
  8
13 町界
 10
-366.370987
 20
247.593338
  0
VERTEX
  8
13 町界
 10
-368.960337
 20
243.125710
  0
SEQEND
  0
POLYLINE
  8
13 町界
  6
AIGENLINE004
 40
0.176390
 41
0.176390
 62
30
 66
1
 10
0
 20
0
 30
0
 70
128
  0
VERTEX
  8
13 町界
 10
-356.309867
 20
241.533376
  0
VERTEX
  8
13 町界
 10
-359.250275
 20
236.447694
  0
SEQEND
  0
POLYLINE
  8
13 町界
  6
AIGENLINE004
 40
0.176390
 41
0.176390
 62
30
 66
1
 10
0
 20
0
 30
0
 70
128
  0
VERTEX
  8
13 町界
 10
-379.088293
 20
248.535922
  0
VERTEX
  8
13 町界
 10
-376.549242
 20
246.913960
  0
VERTEX
  8
13 町界
 10
-376.051078
 20
247.644325
  0
VERTEX
  8
13 町界
 10
-368.960337
 20
243.125710
  0
SEQEND
  0
POLYLINE
  8
13 町界
  6
AIGENLINE004
 40
0.176390
 41
0.176390
 62
30
 66
1
 10
0
 20
0
 30
0
 70
128
  0
VERTEX
  8
13 町界
 10
-368.960337
 20
243.125710
  0
VERTEX
  8
13 町界
 10
-359.250275
 20
236.447694
  0
SEQEND
  0
POLYLINE
  8
13 町界
  6
AIGENLINE004
 40
0.176390
 41
0.176390
 62
30
 66
1
 10
0
 20
0
 30
0
 70
128
  0
VERTEX
  8
13 町界
 10
-359.250275
 20
236.447694
  0
VERTEX
  8
13 町界
 10
-349.618760
 20
230.076295
  0
SEQEND
  0
POLYLINE
  8
13 町界
  6
AIGENLINE004
 40
0.176390
 41
0.176390
 62
30
 66
1
 10
0
 20
0
 30
0
 70
128
  0
VERTEX
  8
13 町界
 10
-399.586740
 20
256.598874
  0
VERTEX
  8
13 町界
 10
-397.174125
 20
260.252765
  0
SEQEND
  0
POLYLINE
  8
13 町界
  6
AIGENLINE004
 40
0.176390
 41
0.176390
 62
30
 66
1
 10
0
 20
0
 30
0
 70
128
  0
VERTEX
  8
13 町界
 10
-399.586740
 20
256.598874
  0
VERTEX
  8
13 町界
 10
-391.276428
 20
250.764912
  0
SEQEND
  0
POLYLINE
  8
13 町界
  6
AIGENLINE004
 40
0.176390
 41
0.176390
 62
30
 66
1
 10
0
 20
0
 30
0
 70
128
  0
VERTEX
  8
13 町界
 10
-389.133566
 20
254.599328
  0
VERTEX
  8
13 町界
 10
-391.276428
 20
250.764912
  0
SEQEND
  0
POLYLINE
  8
13 町界
  6
AIGENLINE004
 40
0.176390
 41
0.176390
 62
30
 66
1
 10
0
 20
0
 30
0
 70
128
  0
VERTEX
  8
13 町界
 10
-389.133566
 20
254.599328
  0
VERTEX
  8
13 町界
 10
-379.088293
 20
248.535922
  0
SEQEND
  0
POLYLINE
  8
13 町界
  6
AIGENLINE004
 40
0.176390
 41
0.176390
 62
30
 66
1
 10
0
 20
0
 30
0
 70
128
  0
VERTEX
  8
13 町界
 10
-391.276428
 20
250.764912
  0
VERTEX
  8
13 町界
 10
-381.799600
 20
244.194385
  0
SEQEND
  0
POLYLINE
  8
13 町界
  6
AIGENLINE004
 40
0.176390
 41
0.176390
 62
30
 66
1
 10
0
 20
0
 30
0
 70
128
  0
VERTEX
  8
13 町界
 10
-379.088293
 20
248.535922
  0
VERTEX
  8
13 町界
 10
-381.799600
 20
244.194385
  0
SEQEND
  0
POLYLINE
  8
13 町界
  6
AIGENLINE004
 40
0.176390
 41
0.176390
 62
30
 66
1
 10
0
 20
0
 30
0
 70
128
  0
VERTEX
  8
13 町界
 10
-381.799600
 20
244.194385
  0
VERTEX
  8
13 町界
 10
-372.352400
 20
237.883275
  0
SEQEND
  0
POLYLINE
  8
13 町界
  6
AIGENLINE004
 40
0.176390
 41
0.176390
 62
30
 66
1
 10
0
 20
0
 30
0
 70
128
  0
VERTEX
  8
13 町界
 10
-368.960337
 20
243.125710
  0
VERTEX
  8
13 町界
 10
-372.352400
 20
237.883275
  0
SEQEND
  0
POLYLINE
  8
13 町界
  6
AIGENLINE004
 40
0.176390
 41
0.176390
 62
30
 66
1
 10
0
 20
0
 30
0
 70
128
  0
VERTEX
  8
13 町界
 10
-372.352400
 20
237.883275
  0
VERTEX
  8
13 町界
 10
-362.639925
 20
231.401287
  0
SEQEND
  0
POLYLINE
  8
13 町界
  6
AIGENLINE004
 40
0.176390
 41
0.176390
 62
30
 66
1
 10
0
 20
0
 30
0
 70
128
  0
VERTEX
  8
13 町界
 10
-359.250275
 20
236.447694
  0
VERTEX
  8
13 町界
 10
-362.639925
 20
231.401287
  0
SEQEND
  0
POLYLINE
  8
13 町界
  6
AIGENLINE004
 40
0.176390
 41
0.176390
 62
30
 66
1
 10
0
 20
0
 30
0
 70
128
  0
VERTEX
  8
13 町界
 10
-362.639925
 20
231.401287
  0
VERTEX
  8
13 町界
 10
-352.828232
 20
224.820424
  0
SEQEND
  0
POLYLINE
  8
13 町界
  6
AIGENLINE004
 40
0.176390
 41
0.176390
 62
30
 66
1
 10
0
 20
0
 30
0
 70
128
  0
VERTEX
  8
13 町界
 10
-402.019682
 20
251.920405
  0
VERTEX
  8
13 町界
 10
-399.586740
 20
256.598874
  0
SEQEND
  0
POLYLINE
  8
13 町界
  6
AIGENLINE004
 40
0.176390
 41
0.176390
 62
30
 66
1
 10
0
 20
0
 30
0
 70
128
  0
VERTEX
  8
13 町界
 10
-391.276428
 20
250.764912
  0
VERTEX
  8
13 町界
 10
-393.795498
 20
245.190713
  0
SEQEND
  0
POLYLINE
  8
13 町界
  6
AIGENLINE004
 40
0.176390
 41
0.176390
 62
30
 66
1
 10
0
 20
0
 30
0
 70
128
  0
VERTEX
  8
13 町界
 10
-393.795498
 20
245.190713
  0
VERTEX
  8
13 町界
 10
-385.154455
 20
239.247541
  0
SEQEND
  0
POLYLINE
  8
13 町界
  6
AIGENLINE004
 40
0.176390
 41
0.176390
 62
30
 66
1
 10
0
 20
0
 30
0
 70
128
  0
VERTEX
  8
13 町界
 10
-381.799600
 20
244.194385
  0
VERTEX
  8
13 町界
 10
-385.154455
 20
239.247541
  0
SEQEND
  0
POLYLINE
  8
13 町界
  6
AIGENLINE004
 40
0.176390
 41
0.176390
 62
30
 66
1
 10
0
 20
0
 30
0
 70
128
  0
VERTEX
  8
13 町界
 10
-372.352400
 20
237.883275
  0
VERTEX
  8
13 町界
 10
-375.818188
 20
232.922650
  0
SEQEND
  0
POLYLINE
  8
13 町界
  6
AIGENLINE004
 40
0.176390
 41
0.176390
 62
30
 66
1
 10
0
 20
0
 30
0
 70
128
  0
VERTEX
  8
13 町界
 10
-375.818188
 20
232.922650
  0
VERTEX
  8
13 町界
 10
-366.180128
 20
226.414824
  0
SEQEND
  0
POLYLINE
  8
13 町界
  6
AIGENLINE004
 40
0.176390
 41
0.176390
 62
30
 66
1
 10
0
 20
0
 30
0
 70
128
  0
VERTEX
  8
13 町界
 10
-385.154455
 20
239.247541
  0
VERTEX
  8
13 町界
 10
-375.818188
 20
232.922650
  0
SEQEND
  0
POLYLINE
  8
13 町界
  6
AIGENLINE004
 40
0.176390
 41
0.176390
 62
30
 66
1
 10
0
 20
0
 30
0
 70
128
  0
VERTEX
  8
13 町界
 10
-362.639925
 20
231.401287
  0
VERTEX
  8
13 町界
 10
-366.180128
 20
226.414824
  0
SEQEND
  0
POLYLINE
  8
13 町界
  6
AIGENLINE004
 40
0.176390
 41
0.176390
 62
30
 66
1
 10
0
 20
0
 30
0
 70
128
  0
VERTEX
  8
13 町界
 10
-366.180128
 20
226.414824
  0
VERTEX
  8
13 町界
 10
-356.347763
 20
219.634144
  0
SEQEND
  0
POLYLINE
  8
13 町界
  6
AIGENLINE004
 40
0.176390
 41
0.176390
 62
30
 66
1
 10
0
 20
0
 30
0
 70
128
  0
VERTEX
  8
13 町界
 10
-402.019682
 20
251.920405
  0
VERTEX
  8
13 町界
 10
-403.355009
 20
249.362061
  0
VERTEX
  8
13 町界
 10
-405.678396
 20
247.365271
  0
SEQEND
  0
POLYLINE
  8
13 町界
  6
AIGENLINE004
 40
0.176390
 41
0.176390
 62
30
 66
1
 10
0
 20
0
 30
0
 70
128
  0
VERTEX
  8
13 町界
 10
-402.019682
 20
251.920405
  0
VERTEX
  8
13 町界
 10
-393.795498
 20
245.190713
  0
SEQEND
  0
POLYLINE
  8
13 町界
  6
AIGENLINE004
 40
0.176390
 41
0.176390
 62
30
 66
1
 10
0
 20
0
 30
0
 70
128
  0
VERTEX
  8
13 町界
 10
-405.678396
 20
247.365271
  0
VERTEX
  8
13 町界
 10
-396.965350
 20
238.752478
  0
SEQEND
  0
POLYLINE
  8
13 町界
  6
AIGENLINE004
 40
0.176390
 41
0.176390
 62
30
 66
1
 10
0
 20
0
 30
0
 70
128
  0
VERTEX
  8
13 町界
 10
-393.795498
 20
245.190713
  0
VERTEX
  8
13 町界
 10
-396.965350
 20
238.752478
  0
SEQEND
  0
POLYLINE
  8
13 町界
  6
AIGENLINE004
 40
0.176390
 41
0.176390
 62
30
 66
1
 10
0
 20
0
 30
0
 70
128
  0
VERTEX
  8
13 町界
 10
-385.154455
 20
239.247541
  0
VERTEX
  8
13 町界
 10
-388.874837
 20
233.250281
  0
SEQEND
  0
POLYLINE
  8
13 町界
  6
AIGENLINE004
 40
0.176390
 41
0.176390
 62
30
 66
1
 10
0
 20
0
 30
0
 70
128
  0
VERTEX
  8
13 町界
 10
-388.874837
 20
233.250281
  0
VERTEX
  8
13 町界
 10
-379.811423
 20
227.288506
  0
SEQEND
  0
POLYLINE
  8
13 町界
  6
AIGENLINE004
 40
0.176390
 41
0.176390
 62
30
 66
1
 10
0
 20
0
 30
0
 70
128
  0
VERTEX
  8
13 町界
 10
-396.965350
 20
238.752478
  0
VERTEX
  8
13 町界
 10
-388.874837
 20
233.250281
  0
SEQEND
  0
POLYLINE
  8
13 町界
  6
AIGENLINE004
 40
0.176390
 41
0.176390
 62
30
 66
1
 10
0
 20
0
 30
0
 70
128
  0
VERTEX
  8
13 町界
 10
-375.818188
 20
232.922650
  0
VERTEX
  8
13 町界
 10
-379.811423
 20
227.288506
  0
SEQEND
  0
POLYLINE
  8
13 町界
  6
AIGENLINE004
 40
0.176390
 41
0.176390
 62
30
 66
1
 10
0
 20
0
 30
0
 70
128
  0
VERTEX
  8
13 町界
 10
-366.180128
 20
226.414824
  0
VERTEX
  8
13 町界
 10
-370.199202
 20
220.706954
  0
SEQEND
  0
POLYLINE
  8
13 町界
  6
AIGENLINE004
 40
0.176390
 41
0.176390
 62
30
 66
1
 10
0
 20
0
 30
0
 70
128
  0
VERTEX
  8
13 町界
 10
-379.811423
 20
227.288506
  0
VERTEX
  8
13 町界
 10
-370.199202
 20
220.706954
  0
SEQEND
  0
POLYLINE
  8
13 町界
  6
AIGENLINE004
 40
0.176390
 41
0.176390
 62
30
 66
1
 10
0
 20
0
 30
0
 70
128
  0
VERTEX
  8
13 町界
 10
-370.199202
 20
220.706954
  0
VERTEX
  8
13 町界
 10
-360.186657
 20
213.977262
  0
SEQEND
  0
POLYLINE
  8
13 町界
  6
AIGENLINE004
 40
0.176390
 41
0.176390
 62
30
 66
1
 10
0
 20
0
 30
0
 70
128
  0
VERTEX
  8
13 町界
 10
-405.678396
 20
247.365271
  0
VERTEX
  8
13 町界
 10
-410.393039
 20
244.228836
  0
SEQEND
  0
POLYLINE
  8
13 町界
  6
AIGENLINE004
 40
0.176390
 41
0.176390
 62
30
 66
1
 10
0
 20
0
 30
0
 70
128
  0
VERTEX
  8
13 町界
 10
-396.965350
 20
238.752478
  0
VERTEX
  8
13 町界
 10
-398.974198
 20
234.420587
  0
SEQEND
  0
POLYLINE
  8
13 町界
  6
AIGENLINE004
 40
0.176390
 41
0.176390
 62
30
 66
1
 10
0
 20
0
 30
0
 70
128
  0
VERTEX
  8
13 町界
 10
-410.393039
 20
244.228836
  0
VERTEX
  8
13 町界
 10
-406.483865
 20
239.586196
  0
VERTEX
  8
13 町界
 10
-404.830898
 20
238.119954
  0
VERTEX
  8
13 町界
 10
-398.974198
 20
234.420587
  0
SEQEND
  0
POLYLINE
  8
13 町界
  6
AIGENLINE004
 40
0.176390
 41
0.176390
 62
30
 66
1
 10
0
 20
0
 30
0
 70
128
  0
VERTEX
  8
13 町界
 10
-398.974198
 20
234.420587
  0
VERTEX
  8
13 町界
 10
-399.422753
 20
233.400144
  0
SEQEND
  0
POLYLINE
  8
13 町界
  6
AIGENLINE004
 40
0.176390
 41
0.176390
 62
30
 66
1
 10
0
 20
0
 30
0
 70
128
  0
VERTEX
  8
13 町界
 10
-388.874837
 20
233.250281
  0
VERTEX
  8
13 町界
 10
-391.882769
 20
228.345468
  0
SEQEND
  0
POLYLINE
  8
13 町界
  6
AIGENLINE004
 40
0.176390
 41
0.176390
 62
30
 66
1
 10
0
 20
0
 30
0
 70
128
  0
VERTEX
  8
13 町界
 10
-379.811423
 20
227.288506
  0
VERTEX
  8
13 町界
 10
-383.351970
 20
222.511506
  0
SEQEND
  0
POLYLINE
  8
13 町界
  6
AIGENLINE004
 40
0.176390
 41
0.176390
 62
30
 66
1
 10
0
 20
0
 30
0
 70
128
  0
VERTEX
  8
13 町界
 10
-383.351970
 20
222.511506
  0
VERTEX
  8
13 町界
 10
-373.660166
 20
215.980942
  0
SEQEND
  0
POLYLINE
  8
13 町界
  6
AIGENLINE004
 40
0.176390
 41
0.176390
 62
30
 66
1
 10
0
 20
0
 30
0
 70
128
  0
VERTEX
  8
13 町界
 10
-391.882769
 20
228.345468
  0
VERTEX
  8
13 町界
 10
-383.351970
 20
222.511506
  0
SEQEND
  0
POLYLINE
  8
13 町界
  6
AIGENLINE004
 40
0.176390
 41
0.176390
 62
30
 66
1
 10
0
 20
0
 30
0
 70
128
  0
VERTEX
  8
13 町界
 10
-370.199202
 20
220.706954
  0
VERTEX
  8
13 町界
 10
-373.660166
 20
215.980942
  0
SEQEND
  0
POLYLINE
  8
13 町界
  6
AIGENLINE004
 40
0.176390
 41
0.176390
 62
30
 66
1
 10
0
 20
0
 30
0
 70
128
  0
VERTEX
  8
13 町界
 10
-373.660166
 20
215.980942
  0
VERTEX
  8
13 町界
 10
-363.477089
 20
208.870909
  0
SEQEND
  0
POLYLINE
  8
13 町界
  6
AIGENLINE004
 40
0.176390
 41
0.176390
 62
30
 66
1
 10
0
 20
0
 30
0
 70
128
  0
VERTEX
  8
13 町界
 10
-410.393039
 20
244.228836
  0
VERTEX
  8
13 町界
 10
-414.936115
 20
240.900164
  0
SEQEND
  0
POLYLINE
  8
13 町界
  6
AIGENLINE004
 40
0.176390
 41
0.176390
 62
30
 66
1
 10
0
 20
0
 30
0
 70
128
  0
VERTEX
  8
13 町界
 10
-399.422753
 20
233.400144
  0
VERTEX
  8
13 町界
 10
-403.260613
 20
227.513127
  0
SEQEND
  0
POLYLINE
  8
13 町界
  6
AIGENLINE004
 40
0.176390
 41
0.176390
 62
30
 66
1
 10
0
 20
0
 30
0
 70
128
  0
VERTEX
  8
13 町界
 10
-399.422753
 20
233.400144
  0
VERTEX
  8
13 町界
 10
-391.882769
 20
228.345468
  0
SEQEND
  0
POLYLINE
  8
13 町界
  6
AIGENLINE004
 40
0.176390
 41
0.176390
 62
30
 66
1
 10
0
 20
0
 30
0
 70
128
  0
VERTEX
  8
13 町界
 10
-391.882769
 20
228.345468
  0
VERTEX
  8
13 町界
 10
-395.877038
 20
222.563872
  0
SEQEND
  0
POLYLINE
  8
13 町界
  6
AIGENLINE004
 40
0.176390
 41
0.176390
 62
30
 66
1
 10
0
 20
0
 30
0
 70
128
  0
VERTEX
  8
13 町界
 10
-383.351970
 20
222.511506
  0
VERTEX
  8
13 町界
 10
-387.590842
 20
216.853935
  0
SEQEND
  0
POLYLINE
  8
13 町界
  6
AIGENLINE004
 40
0.176390
 41
0.176390
 62
30
 66
1
 10
0
 20
0
 30
0
 70
128
  0
VERTEX
  8
13 町界
 10
-373.660166
 20
215.980942
  0
VERTEX
  8
13 町界
 10
-377.615850
 20
210.169719
  0
SEQEND
  0
POLYLINE
  8
13 町界
  6
AIGENLINE004
 40
0.176390
 41
0.176390
 62
30
 66
1
 10
0
 20
0
 30
0
 70
128
  0
VERTEX
  8
13 町界
 10
-377.615850
 20
210.169719
  0
VERTEX
  8
13 町界
 10
-387.590842
 20
216.853935
  0
SEQEND
  0
POLYLINE
  8
13 町界
  6
AIGENLINE004
 40
0.176390
 41
0.176390
 62
30
 66
1
 10
0
 20
0
 30
0
 70
128
  0
VERTEX
  8
13 町界
 10
-387.590842
 20
216.853935
  0
VERTEX
  8
13 町界
 10
-395.877038
 20
222.563872
  0
SEQEND
  0
POLYLINE
  8
13 町界
  6
AIGENLINE004
 40
0.176390
 41
0.176390
 62
30
 66
1
 10
0
 20
0
 30
0
 70
128
  0
VERTEX
  8
13 町界
 10
-395.877038
 20
222.563872
  0
VERTEX
  8
13 町界
 10
-403.260613
 20
227.513127
  0
SEQEND
  0
POLYLINE
  8
13 町界
  6
AIGENLINE004
 40
0.176390
 41
0.176390
 62
30
 66
1
 10
0
 20
0
 30
0
 70
128
  0
VERTEX
  8
13 町界
 10
-403.260613
 20
227.513127
  0
VERTEX
  8
13 町界
 10
-403.879356
 20
226.542293
  0
SEQEND
  0
POLYLINE
  8
13 町界
  6
AIGENLINE004
 40
0.176390
 41
0.176390
 62
30
 66
1
 10
0
 20
0
 30
0
 70
128
  0
VERTEX
  8
13 町界
 10
-414.936115
 20
240.900164
  0
VERTEX
  8
13 町界
 10
-410.925310
 20
235.177824
  0
VERTEX
  8
13 町界
 10
-403.879356
 20
226.542293
  0
SEQEND
  0
POLYLINE
  8
13 町界
  6
AIGENLINE004
 40
0.176390
 41
0.176390
 62
30
 66
1
 10
0
 20
0
 30
0
 70
128
  0
VERTEX
  8
13 町界
 10
-395.877038
 20
222.563872
  0
VERTEX
  8
13 町界
 10
-398.513931
 20
218.652975
  0
SEQEND
  0
POLYLINE
  8
13 町界
  6
AIGENLINE004
 40
0.176390
 41
0.176390
 62
30
 66
1
 10
0
 20
0
 30
0
 70
128
  0
VERTEX
  8
13 町界
 10
-387.590842
 20
216.853935
  0
VERTEX
  8
13 町界
 10
-391.595791
 20
211.790991
  0
SEQEND
  0
POLYLINE
  8
13 町界
  6
AIGENLINE004
 40
0.176390
 41
0.176390
 62
30
 66
1
 10
0
 20
0
 30
0
 70
128
  0
VERTEX
  8
13 町界
 10
-377.615850
 20
210.169719
  0
VERTEX
  8
13 町界
 10
-381.085772
 20
205.112976
  0
SEQEND
  0
POLYLINE
  8
13 町界
  6
AIGENLINE004
 40
0.176390
 41
0.176390
 62
30
 66
1
 10
0
 20
0
 30
0
 70
128
  0
VERTEX
  8
13 町界
 10
-381.085772
 20
205.112976
  0
VERTEX
  8
13 町界
 10
-370.401774
 20
197.910614
  0
SEQEND
  0
POLYLINE
  8
13 町界
  6
AIGENLINE004
 40
0.176390
 41
0.176390
 62
30
 66
1
 10
0
 20
0
 30
0
 70
128
  0
VERTEX
  8
13 町界
 10
-391.595791
 20
211.790991
  0
VERTEX
  8
13 町界
 10
-381.085772
 20
205.112976
  0
SEQEND
  0
POLYLINE
  8
13 町界
  6
AIGENLINE004
 40
0.176390
 41
0.176390
 62
30
 66
1
 10
0
 20
0
 30
0
 70
128
  0
VERTEX
  8
13 町界
 10
-398.513931
 20
218.652975
  0
VERTEX
  8
13 町界
 10
-391.595791
 20
211.790991
  0
SEQEND
  0
POLYLINE
  8
13 町界
  6
AIGENLINE004
 40
0.176390
 41
0.176390
 62
30
 66
1
 10
0
 20
0
 30
0
 70
128
  0
VERTEX
  8
13 町界
 10
-414.936115
 20
240.900164
  0
VERTEX
  8
13 町界
 10
-419.848852
 20
237.380632
  0
SEQEND
  0
POLYLINE
  8
13 町界
  6
AIGENLINE004
 40
0.176390
 41
0.176390
 62
30
 66
1
 10
0
 20
0
 30
0
 70
128
  0
VERTEX
  8
13 町界
 10
-419.848852
 20
237.380632
  0
VERTEX
  8
13 町界
 10
-415.516962
 20
230.999586
  0
VERTEX
  8
13 町界
 10
-410.204591
 20
224.429748
  0
SEQEND
  0
POLYLINE
  8
13 町界
  6
AIGENLINE004
 40
0.176390
 41
0.176390
 62
30
 66
1
 10
0
 20
0
 30
0
 70
128
  0
VERTEX
  8
13 町界
 10
-405.005909
 20
224.989924
  0
VERTEX
  8
13 町界
 10
-408.297030
 20
222.063641
  0
SEQEND
  0
POLYLINE
  8
13 町界
  6
AIGENLINE004
 40
0.176390
 41
0.176390
 62
30
 66
1
 10
0
 20
0
 30
0
 70
128
  0
VERTEX
  8
13 町界
 10
-405.005909
 20
224.989924
  0
VERTEX
  8
13 町界
 10
-398.513931
 20
218.652975
  0
SEQEND
  0
POLYLINE
  8
13 町界
  6
AIGENLINE004
 40
0.176390
 41
0.176390
 62
30
 66
1
 10
0
 20
0
 30
0
 70
128
  0
VERTEX
  8
13 町界
 10
-398.513931
 20
218.652975
  0
VERTEX
  8
13 町界
 10
-402.518190
 20
214.476460
  0
SEQEND
  0
POLYLINE
  8
13 町界
  6
AIGENLINE004
 40
0.176390
 41
0.176390
 62
30
 66
1
 10
0
 20
0
 30
0
 70
128
  0
VERTEX
  8
13 町界
 10
-408.297030
 20
222.063641
  0
VERTEX
  8
13 町界
 10
-406.559657
 20
219.800199
  0
SEQEND
  0
POLYLINE
  8
13 町界
  6
AIGENLINE004
 40
0.176390
 41
0.176390
 62
30
 66
1
 10
0
 20
0
 30
0
 70
128
  0
VERTEX
  8
13 町界
 10
-402.518190
 20
214.476460
  0
VERTEX
  8
13 町界
 10
-396.549525
 20
207.643070
  0
SEQEND
  0
POLYLINE
  8
13 町界
  6
AIGENLINE004
 40
0.176390
 41
0.176390
 62
30
 66
1
 10
0
 20
0
 30
0
 70
128
  0
VERTEX
  8
13 町界
 10
-391.595791
 20
211.790991
  0
VERTEX
  8
13 町界
 10
-395.635880
 20
206.565437
  0
SEQEND
  0
POLYLINE
  8
13 町界
  6
AIGENLINE004
 40
0.176390
 41
0.176390
 62
30
 66
1
 10
0
 20
0
 30
0
 70
128
  0
VERTEX
  8
13 町界
 10
-395.635880
 20
206.565437
  0
VERTEX
  8
13 町界
 10
-388.075226
 20
199.647986
  0
SEQEND
  0
POLYLINE
  8
13 町界
  6
AIGENLINE004
 40
0.176390
 41
0.176390
 62
30
 66
1
 10
0
 20
0
 30
0
 70
128
  0
VERTEX
  8
13 町界
 10
-381.085772
 20
205.112976
  0
VERTEX
  8
13 町界
 10
-386.119777
 20
198.081491
  0
SEQEND
  0
POLYLINE
  8
13 町界
  6
AIGENLINE004
 40
0.176390
 41
0.176390
 62
30
 66
1
 10
0
 20
0
 30
0
 70
128
  0
VERTEX
  8
13 町界
 10
-386.119777
 20
198.081491
  0
VERTEX
  8
13 町界
 10
-381.568088
 20
194.706655
  0
SEQEND
  0
POLYLINE
  8
13 町界
  6
AIGENLINE004
 40
0.176390
 41
0.176390
 62
30
 66
1
 10
0
 20
0
 30
0
 70
128
  0
VERTEX
  8
13 町界
 10
-428.822005
 20
208.194977
  0
VERTEX
  8
13 町界
 10
-424.964162
 20
203.982977
  0
SEQEND
  0
POLYLINE
  8
13 町界
  6
AIGENLINE004
 40
0.176390
 41
0.176390
 62
30
 66
1
 10
0
 20
0
 30
0
 70
128
  0
VERTEX
  8
13 町界
 10
-428.822005
 20
208.194977
  0
VERTEX
  8
13 町界
 10
-429.573040
 20
208.843693
  0
VERTEX
  8
13 町界
 10
-434.355552
 20
204.596552
  0
SEQEND
  0
POLYLINE
  8
13 町界
  6
AIGENLINE004
 40
0.176390
 41
0.176390
 62
30
 66
1
 10
0
 20
0
 30
0
 70
128
  0
VERTEX
  8
13 町界
 10
-424.964162
 20
203.982977
  0
VERTEX
  8
13 町界
 10
-415.230673
 20
212.420758
  0
SEQEND
  0
POLYLINE
  8
13 町界
  6
AIGENLINE004
 40
0.176390
 41
0.176390
 62
30
 66
1
 10
0
 20
0
 30
0
 70
128
  0
VERTEX
  8
13 町界
 10
-424.964162
 20
203.982977
  0
VERTEX
  8
13 町界
 10
-422.378257
 20
200.907865
  0
SEQEND
  0
POLYLINE
  8
13 町界
  6
AIGENLINE004
 40
0.176390
 41
0.176390
 62
30
 66
1
 10
0
 20
0
 30
0
 70
128
  0
VERTEX
  8
13 町界
 10
-412.675774
 20
209.625735
  0
VERTEX
  8
13 町界
 10
-415.230673
 20
212.420758
  0
SEQEND
  0
POLYLINE
  8
13 町界
  6
AIGENLINE004
 40
0.176390
 41
0.176390
 62
30
 66
1
 10
0
 20
0
 30
0
 70
128
  0
VERTEX
  8
13 町界
 10
-422.378257
 20
200.907865
  0
VERTEX
  8
13 町界
 10
-430.123914
 20
193.671052
  0
SEQEND
  0
POLYLINE
  8
13 町界
  6
AIGENLINE004
 40
0.176390
 41
0.176390
 62
30
 66
1
 10
0
 20
0
 30
0
 70
128
  0
VERTEX
  8
13 町界
 10
-412.675774
 20
209.625735
  0
VERTEX
  8
13 町界
 10
-422.378257
 20
200.907865
  0
SEQEND
  0
POLYLINE
  8
13 町界
  6
AIGENLINE004
 40
0.176390
 41
0.176390
 62
30
 66
1
 10
0
 20
0
 30
0
 70
128
  0
VERTEX
  8
13 町界
 10
-415.230673
 20
212.420758
  0
VERTEX
  8
13 町界
 10
-411.507535
 20
215.628162
  0
VERTEX
  8
13 町界
 10
-406.559657
 20
219.800199
  0
SEQEND
  0
POLYLINE
  8
13 町界
  6
AIGENLINE004
 40
0.176390
 41
0.176390
 62
30
 66
1
 10
0
 20
0
 30
0
 70
128
  0
VERTEX
  8
13 町界
 10
-422.378257
 20
200.907865
  0
VERTEX
  8
13 町界
 10
-414.041418
 20
191.924378
  0
SEQEND
  0
POLYLINE
  8
13 町界
  6
AIGENLINE004
 40
0.176390
 41
0.176390
 62
30
 66
1
 10
0
 20
0
 30
0
 70
128
  0
VERTEX
  8
13 町界
 10
-412.675774
 20
209.625735
  0
VERTEX
  8
13 町界
 10
-404.408526
 20
200.492384
  0
SEQEND
  0
POLYLINE
  8
13 町界
  6
AIGENLINE004
 40
0.176390
 41
0.176390
 62
30
 66
1
 10
0
 20
0
 30
0
 70
128
  0
VERTEX
  8
13 町界
 10
-414.041418
 20
191.924378
  0
VERTEX
  8
13 町界
 10
-414.940249
 20
191.272562
  0
VERTEX
  8
13 町界
 10
-415.510761
 20
191.701134
  0
VERTEX
  8
13 町界
 10
-422.628717
 20
185.508881
  0
SEQEND
  0
POLYLINE
  8
13 町界
  6
AIGENLINE004
 40
0.176390
 41
0.176390
 62
30
 66
1
 10
0
 20
0
 30
0
 70
128
  0
VERTEX
  8
13 町界
 10
-404.408526
 20
200.492384
  0
VERTEX
  8
13 町界
 10
-414.041418
 20
191.924378
  0
SEQEND
  0
POLYLINE
  8
13 町界
  6
AIGENLINE004
 40
0.176390
 41
0.176390
 62
30
 66
1
 10
0
 20
0
 30
0
 70
128
  0
VERTEX
  8
13 町界
 10
-414.041418
 20
191.924378
  0
VERTEX
  8
13 町界
 10
-406.625804
 20
183.518981
  0
SEQEND
  0
POLYLINE
  8
13 町界
  6
AIGENLINE004
 40
0.176390
 41
0.176390
 62
30
 66
1
 10
0
 20
0
 30
0
 70
128
  0
VERTEX
  8
13 町界
 10
-404.408526
 20
200.492384
  0
VERTEX
  8
13 町界
 10
-396.592933
 20
192.188274
  0
SEQEND
  0
POLYLINE
  8
13 町界
  6
AIGENLINE004
 40
0.176390
 41
0.176390
 62
30
 66
1
 10
0
 20
0
 30
0
 70
128
  0
VERTEX
  8
13 町界
 10
-406.625804
 20
183.518981
  0
VERTEX
  8
13 町界
 10
-414.712183
 20
176.723832
  0
SEQEND
  0
POLYLINE
  8
13 町界
  6
AIGENLINE004
 40
0.176390
 41
0.176390
 62
30
 66
1
 10
0
 20
0
 30
0
 70
128
  0
VERTEX
  8
13 町界
 10
-396.592933
 20
192.188274
  0
VERTEX
  8
13 町界
 10
-406.625804
 20
183.518981
  0
SEQEND
  0
POLYLINE
  8
13 町界
  6
AIGENLINE004
 40
0.176390
 41
0.176390
 62
30
 66
1
 10
0
 20
0
 30
0
 70
128
  0
VERTEX
  8
13 町界
 10
-396.592933
 20
192.188274
  0
VERTEX
  8
13 町界
 10
-391.428703
 20
186.198593
  0
SEQEND
  0
POLYLINE
  8
13 町界
  6
AIGENLINE004
 40
0.176390
 41
0.176390
 62
30
 66
1
 10
0
 20
0
 30
0
 70
128
  0
VERTEX
  8
13 町界
 10
-406.625804
 20
183.518981
  0
VERTEX
  8
13 町界
 10
-401.334104
 20
177.419746
  0
SEQEND
  0
POLYLINE
  8
13 町界
  6
AIGENLINE004
 40
0.176390
 41
0.176390
 62
30
 66
1
 10
0
 20
0
 30
0
 70
128
  0
VERTEX
  8
13 町界
 10
-391.428703
 20
186.198593
  0
VERTEX
  8
13 町界
 10
-401.334104
 20
177.419746
  0
SEQEND
  0
POLYLINE
  8
13 町界
  6
AIGENLINE004
 40
0.176390
 41
0.176390
 62
30
 66
1
 10
0
 20
0
 30
0
 70
128
  0
VERTEX
  8
13 町界
 10
-401.334104
 20
177.419746
  0
VERTEX
  8
13 町界
 10
-405.607082
 20
173.891946
  0
VERTEX
  8
13 町界
 10
-401.417820
 20
169.170068
  0
VERTEX
  8
13 町界
 10
-405.492360
 20
166.072219
  0
SEQEND
  0
POLYLINE
  8
13 町界
  6
AIGENLINE004
 40
0.176390
 41
0.176390
 62
30
 66
1
 10
0
 20
0
 30
0
 70
128
  0
VERTEX
  8
13 町界
 10
-401.334104
 20
177.419746
  0
VERTEX
  8
13 町界
 10
-389.553870
 20
164.258364
  0
SEQEND
  0
POLYLINE
  8
13 町界
  6
AIGENLINE004
 40
0.176390
 41
0.176390
 62
30
 66
1
 10
0
 20
0
 30
0
 70
128
  0
VERTEX
  8
13 町界
 10
-391.428703
 20
186.198593
  0
VERTEX
  8
13 町界
 10
-382.281917
 20
176.016205
  0
SEQEND
  0
POLYLINE
  8
13 町界
  6
AIGENLINE004
 40
0.176390
 41
0.176390
 62
30
 66
1
 10
0
 20
0
 30
0
 70
128
  0
VERTEX
  8
13 町界
 10
-382.281917
 20
176.016205
  0
VERTEX
  8
13 町界
 10
-379.598170
 20
173.009307
  0
SEQEND
  0
POLYLINE
  8
13 町界
  6
AIGENLINE004
 40
0.176390
 41
0.176390
 62
30
 66
1
 10
0
 20
0
 30
0
 70
128
  0
VERTEX
  8
13 町界
 10
-396.752098
 20
157.824263
  0
VERTEX
  8
13 町界
 10
-389.553870
 20
164.258364
  0
SEQEND
  0
POLYLINE
  8
13 町界
  6
AIGENLINE004
 40
0.176390
 41
0.176390
 62
30
 66
1
 10
0
 20
0
 30
0
 70
128
  0
VERTEX
  8
13 町界
 10
-373.899946
 20
183.319164
  0
VERTEX
  8
13 町界
 10
-368.363643
 20
176.462692
  0
SEQEND
  0
POLYLINE
  8
13 町界
  6
AIGENLINE004
 40
0.176390
 41
0.176390
 62
30
 66
1
 10
0
 20
0
 30
0
 70
128
  0
VERTEX
  8
13 町界
 10
-379.598170
 20
173.009307
  0
VERTEX
  8
13 町界
 10
-375.297975
 20
168.300520
  0
SEQEND
  0
POLYLINE
  8
13 町界
  6
AIGENLINE004
 40
0.176390
 41
0.176390
 62
30
 66
1
 10
0
 20
0
 30
0
 70
128
  0
VERTEX
  8
13 町界
 10
-389.553870
 20
164.258364
  0
VERTEX
  8
13 町界
 10
-385.353583
 20
159.716666
  0
SEQEND
  0
POLYLINE
  8
13 町界
  6
AIGENLINE004
 40
0.176390
 41
0.176390
 62
30
 66
1
 10
0
 20
0
 30
0
 70
128
  0
VERTEX
  8
13 町界
 10
-383.723009
 20
157.824263
  0
VERTEX
  8
13 町界
 10
-385.353583
 20
159.716666
  0
SEQEND
  0
POLYLINE
  8
13 町界
  6
AIGENLINE004
 40
0.176390
 41
0.176390
 62
30
 66
1
 10
0
 20
0
 30
0
 70
128
  0
VERTEX
  8
13 町界
 10
-375.297975
 20
168.300520
  0
VERTEX
  8
13 町界
 10
-385.353583
 20
159.716666
  0
SEQEND
  0
POLYLINE
  8
13 町界
  6
AIGENLINE004
 40
0.176390
 41
0.176390
 62
30
 66
1
 10
0
 20
0
 30
0
 70
128
  0
VERTEX
  8
13 町界
 10
-379.598170
 20
173.009307
  0
VERTEX
  8
13 町界
 10
-389.553870
 20
164.258364
  0
SEQEND
  0
POLYLINE
  8
13 町界
  6
AIGENLINE004
 40
0.176390
 41
0.176390
 62
30
 66
1
 10
0
 20
0
 30
0
 70
128
  0
VERTEX
  8
13 町界
 10
-368.363643
 20
176.462692
  0
VERTEX
  8
13 町界
 10
-367.411413
 20
175.214871
  0
SEQEND
  0
POLYLINE
  8
13 町界
  6
AIGENLINE004
 40
0.176390
 41
0.176390
 62
30
 66
1
 10
0
 20
0
 30
0
 70
128
  0
VERTEX
  8
13 町界
 10
-373.899946
 20
183.319164
  0
VERTEX
  8
13 町界
 10
-382.281917
 20
176.016205
  0
SEQEND
  0
POLYLINE
  8
13 町界
  6
AIGENLINE004
 40
0.176390
 41
0.176390
 62
30
 66
1
 10
0
 20
0
 30
0
 70
128
  0
VERTEX
  8
13 町界
 10
-367.411413
 20
175.214871
  0
VERTEX
  8
13 町界
 10
-363.352376
 20
170.322804
  0
SEQEND
  0
POLYLINE
  8
13 町界
  6
AIGENLINE004
 40
0.176390
 41
0.176390
 62
30
 66
1
 10
0
 20
0
 30
0
 70
128
  0
VERTEX
  8
13 町界
 10
-367.411413
 20
175.214871
  0
VERTEX
  8
13 町界
 10
-375.297975
 20
168.300520
  0
SEQEND
  0
POLYLINE
  8
13 町界
  6
AIGENLINE004
 40
0.176390
 41
0.176390
 62
30
 66
1
 10
0
 20
0
 30
0
 70
128
  0
VERTEX
  8
13 町界
 10
-375.297975
 20
168.300520
  0
VERTEX
  8
13 町界
 10
-367.080681
 20
159.166826
  0
SEQEND
  0
POLYLINE
  8
13 町界
  6
AIGENLINE004
 40
0.176390
 41
0.176390
 62
30
 66
1
 10
0
 20
0
 30
0
 70
128
  0
VERTEX
  8
13 町界
 10
-363.352376
 20
170.322804
  0
VERTEX
  8
13 町界
 10
-359.793570
 20
165.781106
  0
SEQEND
  0
POLYLINE
  8
13 町界
  6
AIGENLINE004
 40
0.176390
 41
0.176390
 62
30
 66
1
 10
0
 20
0
 30
0
 70
128
  0
VERTEX
  8
13 町界
 10
-368.673015
 20
157.824263
  0
VERTEX
  8
13 町界
 10
-367.080681
 20
159.166826
  0
SEQEND
  0
POLYLINE
  8
13 町界
  6
AIGENLINE004
 40
0.176390
 41
0.176390
 62
30
 66
1
 10
0
 20
0
 30
0
 70
128
  0
VERTEX
  8
13 町界
 10
-353.348444
 20
157.824263
  0
VERTEX
  8
13 町界
 10
-359.793570
 20
165.781106
  0
SEQEND
  0
POLYLINE
  8
13 町界
  6
AIGENLINE004
 40
0.176390
 41
0.176390
 62
30
 66
1
 10
0
 20
0
 30
0
 70
128
  0
VERTEX
  8
13 町界
 10
-359.793570
 20
165.781106
  0
VERTEX
  8
13 町界
 10
-367.080681
 20
159.166826
  0
SEQEND
  0
POLYLINE
  8
13 町界
  6
AIGENLINE004
 40
0.176390
 41
0.176390
 62
30
 66
1
 10
0
 20
0
 30
0
 70
128
  0
VERTEX
  8
13 町界
 10
-365.922433
 20
157.824263
  0
VERTEX
  8
13 町界
 10
-367.080681
 20
159.166826
  0
SEQEND
  0
POLYLINE
  8
13 町界
  6
AIGENLINE004
 40
0.176390
 41
0.176390
 62
30
 66
1
 10
0
 20
0
 30
0
 70
128
  0
VERTEX
  8
13 町界
 10
-414.712183
 20
176.723832
  0
VERTEX
  8
13 町界
 10
-423.098976
 20
170.328316
  0
VERTEX
  8
13 町界
 10
-425.866783
 20
168.973007
  0
SEQEND
  0
POLYLINE
  8
13 町界
  6
AIGENLINE004
 40
0.176390
 41
0.176390
 62
30
 66
1
 10
0
 20
0
 30
0
 70
128
  0
VERTEX
  8
13 町界
 10
-425.866783
 20
168.973007
  0
VERTEX
  8
13 町界
 10
-420.505492
 20
163.213460
  0
SEQEND
  0
POLYLINE
  8
13 町界
  6
AIGENLINE004
 40
0.176390
 41
0.176390
 62
30
 66
1
 10
0
 20
0
 30
0
 70
128
  0
VERTEX
  8
13 町界
 10
-416.676933
 20
158.791308
  0
VERTEX
  8
13 町界
 10
-412.064266
 20
161.481255
  0
VERTEX
  8
13 町界
 10
-405.492360
 20
166.072219
  0
SEQEND
  0
POLYLINE
  8
13 町界
  6
AIGENLINE004
 40
0.176390
 41
0.176390
 62
30
 66
1
 10
0
 20
0
 30
0
 70
128
  0
VERTEX
  8
13 町界
 10
-415.858718
 20
157.824263
  0
VERTEX
  8
13 町界
 10
-416.676933
 20
158.791308
  0
SEQEND
  0
POLYLINE
  8
13 町界
  6
AIGENLINE004
 40
0.176390
 41
0.176390
 62
30
 66
1
 10
0
 20
0
 30
0
 70
128
  0
VERTEX
  8
13 町界
 10
-296.695215
 20
157.824263
  0
VERTEX
  8
13 町界
 10
-298.357484
 20
160.849421
  0
SEQEND
  0
POLYLINE
  8
13 町界
  6
AIGENLINE004
 40
0.176390
 41
0.176390
 62
30
 66
1
 10
0
 20
0
 30
0
 70
128
  0
VERTEX
  8
13 町界
 10
-289.548319
 20
165.816246
  0
VERTEX
  8
13 町界
 10
-285.262249
 20
157.961035
  0
VERTEX
  8
13 町界
 10
-285.240545
 20
157.824263
  0
SEQEND
  0
POLYLINE
  8
13 町界
  6
AIGENLINE004
 40
0.176390
 41
0.176390
 62
30
 66
1
 10
0
 20
0
 30
0
 70
128
  0
VERTEX
  8
13 町界
 10
-303.687769
 20
157.824263
  0
VERTEX
  8
13 町界
 10
-298.357484
 20
160.849421
  0
SEQEND
  0
POLYLINE
  8
13 町界
  6
AIGENLINE004
 40
0.176390
 41
0.176390
 62
30
 66
1
 10
0
 20
0
 30
0
 70
128
  0
VERTEX
  8
13 町界
 10
-289.548319
 20
165.816246
  0
VERTEX
  8
13 町界
 10
-298.357484
 20
160.849421
  0
SEQEND
  0
POLYLINE
  8
13 町界
  6
AIGENLINE004
 40
0.176390
 41
0.176390
 62
30
 66
1
 10
0
 20
0
 30
0
 70
128
  0
VERTEX
  8
13 町界
 10
-289.548319
 20
165.816246
  0
VERTEX
  8
13 町界
 10
-284.247662
 20
169.105989
  0
SEQEND
  0
POLYLINE
  8
13 町界
  6
AIGENLINE004
 40
0.176390
 41
0.176390
 62
30
 66
1
 10
0
 20
0
 30
0
 70
128
  0
VERTEX
  8
13 町界
 10
-427.683049
 20
190.881196
  0
VERTEX
  8
13 町界
 10
-434.355552
 20
185.156101
  0
SEQEND
  0
POLYLINE
  8
13 町界
  6
AIGENLINE004
 40
0.176390
 41
0.176390
 62
30
 66
1
 10
0
 20
0
 30
0
 70
128
  0
VERTEX
  8
13 町界
 10
-427.683049
 20
190.881196
  0
VERTEX
  8
13 町界
 10
-422.628717
 20
185.508881
  0
SEQEND
  0
POLYLINE
  8
13 町界
  6
AIGENLINE004
 40
0.176390
 41
0.176390
 62
30
 66
1
 10
0
 20
0
 30
0
 70
128
  0
VERTEX
  8
13 町界
 10
-381.758259
 20
303.579937
  0
VERTEX
  8
13 町界
 10
-396.256001
 20
302.502993
  0
SEQEND
  0
POLYLINE
  8
13 町界
  6
AIGENLINE004
 40
0.176390
 41
0.176390
 62
30
 66
1
 10
0
 20
0
 30
0
 70
128
  0
VERTEX
  8
13 町界
 10
-396.256001
 20
302.502993
  0
VERTEX
  8
13 町界
 10
-416.449900
 20
300.163759
  0
SEQEND
  0
POLYLINE
  8
13 町界
  6
AIGENLINE004
 40
0.176390
 41
0.176390
 62
30
 66
1
 10
0
 20
0
 30
0
 70
128
  0
VERTEX
  8
13 町界
 10
-314.282538
 20
245.752267
  0
VERTEX
  8
13 町界
 10
-313.383018
 20
246.076797
  0
VERTEX
  8
13 町界
 10
-312.893467
 20
246.400638
  0
VERTEX
  8
13 町界
 10
-311.357289
 20
248.969317
  0
VERTEX
  8
13 町界
 10
-307.551813
 20
246.276614
  0
VERTEX
  8
13 町界
 10
-305.318688
 20
249.580481
  0
SEQEND
  0
POLYLINE
  8
13 町界
  6
AIGENLINE004
 40
0.176390
 41
0.176390
 62
30
 66
1
 10
0
 20
0
 30
0
 70
128
  0
VERTEX
  8
13 町界
 10
-355.819282
 20
307.860495
  0
VERTEX
  8
13 町界
 10
-364.441722
 20
294.212663
  0
SEQEND
  0
POLYLINE
  8
13 町界
  6
AIGENLINE004
 40
0.176390
 41
0.176390
 62
30
 66
1
 10
0
 20
0
 30
0
 70
128
  0
VERTEX
  8
13 町界
 10
-386.671685
 20
258.723133
  0
VERTEX
  8
13 町界
 10
-388.764249
 20
255.119541
  0
SEQEND
  0
POLYLINE
  8
14 公・官庁施設
 40
0.105834
 41
0.105834
 66
1
 10
0
 20
0
 30
0
 70
1
  0
VERTEX
  8
14 公・官庁施設
 10
-370.536823
 20
203.657069
  0
VERTEX
  8
14 公・官庁施設
 10
-369.390288
 20
205.379628
  0
VERTEX
  8
14 公・官庁施設
 10
-376.598162
 20
210.015377
  0
VERTEX
  8
14 公・官庁施設
 10
-377.744697
 20
208.273526
  0
VERTEX
  8
14 公・官庁施設
 10
-377.324393
 20
207.993783
  0
VERTEX
  8
14 公・官庁施設
 10
-378.670056
 20
205.841962
  0
VERTEX
  8
14 公・官庁施設
 10
-378.489532
 20
205.722072
  0
VERTEX
  8
14 公・官庁施設
 10
-379.217485
 20
204.590696
  0
VERTEX
  8
14 公・官庁施設
 10
-377.635831
 20
203.543380
  0
VERTEX
  8
14 公・官庁施設
 10
-376.588516
 20
204.795336
  0
VERTEX
  8
14 公・官庁施設
 10
-375.641109
 20
206.297751
  0
VERTEX
  8
14 公・官庁施設
 10
-375.140189
 20
205.948072
  0
VERTEX
  8
14 公・官庁施設
 10
-375.220115
 20
205.848164
  0
VERTEX
  8
14 公・官庁施設
 10
-375.169472
 20
205.628365
  0
VERTEX
  8
14 公・官庁施設
 10
-374.870091
 20
205.449219
  0
VERTEX
  8
14 公・官庁施設
 10
-375.866075
 20
203.797630
  0
VERTEX
  8
14 公・官庁施設
 10
-375.035457
 20
203.229185
  0
VERTEX
  8
14 公・官庁施設
 10
-374.915567
 20
203.399374
  0
VERTEX
  8
14 公・官庁施設
 10
-374.365726
 20
203.120320
  0
VERTEX
  8
14 公・官庁施設
 10
-377.904551
 20
197.623980
  0
VERTEX
  8
14 公・官庁施設
 10
-375.951514
 20
196.398207
  0
VERTEX
  8
14 公・官庁施設
 10
-371.037054
 20
203.956105
  0
SEQEND
  0
POLYLINE
  8
14 公・官庁施設
 40
0.105834
 41
0.105834
 66
1
 10
0
 20
0
 30
0
 70
1
  0
VERTEX
  8
14 公・官庁施設
 10
-380.783980
 20
202.437498
  0
VERTEX
  8
14 公・官庁施設
 10
-378.911214
 20
201.221371
  0
VERTEX
  8
14 公・官庁施設
 10
-377.535923
 20
203.324271
  0
VERTEX
  8
14 公・官庁施設
 10
-379.417646
 20
204.540397
  0
SEQEND
  0
POLYLINE
  8
14 公・官庁施設
 40
0.105834
 41
0.105834
 66
1
 10
0
 20
0
 30
0
 70
1
  0
VERTEX
  8
14 公・官庁施設
 10
-341.881027
 20
252.009978
  0
VERTEX
  8
14 公・官庁施設
 10
-341.761137
 20
252.110575
  0
VERTEX
  8
14 公・官庁施設
 10
-338.878263
 20
250.396285
  0
VERTEX
  8
14 公・官庁施設
 10
-338.728745
 20
250.646400
  0
VERTEX
  8
14 公・官庁施設
 10
-338.508947
 20
250.546492
  0
VERTEX
  8
14 公・官庁施設
 10
-338.079685
 20
251.267210
  0
VERTEX
  8
14 公・官庁施設
 10
-334.456111
 20
249.325198
  0
VERTEX
  8
14 公・官庁施設
 10
-337.347253
 20
244.669122
  0
VERTEX
  8
14 公・官庁施設
 10
-335.795572
 20
243.652123
  0
VERTEX
  8
14 公・官庁施設
 10
-335.965072
 20
243.392706
  0
VERTEX
  8
14 公・官庁施設
 10
-334.963921
 20
242.724009
  0
VERTEX
  8
14 公・官庁施設
 10
-334.764449
 20
243.024423
  0
VERTEX
  8
14 公・官庁施設
 10
-333.192442
 20
242.047388
  0
VERTEX
  8
14 公・官庁施設
 10
-331.746871
 20
244.330123
  0
VERTEX
  8
14 公・官庁施設
 10
-331.616645
 20
244.260531
  0
VERTEX
  8
14 公・官庁施設
 10
-331.467127
 20
244.510647
  0
VERTEX
  8
14 公・官庁施設
 10
-331.316920
 20
244.451046
  0
VERTEX
  8
14 公・官庁施設
 10
-331.217012
 20
244.600909
  0
VERTEX
  8
14 公・官庁施設
 10
-330.597579
 20
244.233315
  0
VERTEX
  8
14 公・官庁施設
 10
-329.749392
 20
245.653737
  0
VERTEX
  8
14 公・官庁施設
 10
-330.319903
 20
246.032699
  0
VERTEX
  8
14 公・官庁施設
 10
-330.220684
 20
246.182907
  0
VERTEX
  8
14 公・官庁施設
 10
-330.350909
 20
246.282815
  0
VERTEX
  8
14 公・官庁施設
 10
-330.171763
 20
246.552912
  0
VERTEX
  8
14 公・官庁施設
 10
-330.301299
 20
246.663156
  0
VERTEX
  8
14 公・官庁施設
 10
-328.875710
 20
248.915573
  0
VERTEX
  8
14 公・官庁施設
 10
-333.060838
 20
251.526972
  0
VERTEX
  8
14 公・官庁施設
 10
-334.127447
 20
249.845066
  0
VERTEX
  8
14 公・官庁施設
 10
-337.731039
 20
251.848057
  0
VERTEX
  8
14 公・官庁施設
 10
-337.132967
 20
252.869190
  0
VERTEX
  8
14 公・官庁施設
 10
-340.216347
 20
254.713017
  0
VERTEX
  8
14 公・官庁施設
 10
-340.166737
 20
254.863224
  0
VERTEX
  8
14 公・官庁施設
 10
-341.087961
 20
255.410997
  0
VERTEX
  8
14 公・官庁施設
 10
-341.167888
 20
255.291796
  0
VERTEX
  8
14 公・官庁施設
 10
-344.638499
 20
257.327516
  0
VERTEX
  8
14 公・官庁施設
 10
-344.989212
 20
257.576598
  0
VERTEX
  8
14 公・官庁施設
 10
-345.169047
 20
257.356800
  0
VERTEX
  8
14 公・官庁施設
 10
-345.319254
 20
257.425702
  0
VERTEX
  8
14 公・官庁施設
 10
-345.398492
 20
257.325794
  0
VERTEX
  8
14 公・官庁施設
 10
-345.867717
 20
256.724965
  0
VERTEX
  8
14 公・官庁施設
 10
-345.767119
 20
256.625057
  0
VERTEX
  8
14 公・官庁施設
 10
-346.086137
 20
256.094509
  0
VERTEX
  8
14 公・官庁施設
 10
-346.216707
 20
256.124137
  0
VERTEX
  8
14 公・官庁施設
 10
-346.664917
 20
255.323491
  0
VERTEX
  8
14 公・官庁施設
 10
-346.464411
 20
255.193955
  0
VERTEX
  8
14 公・官庁施設
 10
-346.613929
 20
254.953486
  0
VERTEX
  8
14 公・官庁施設
 10
-342.782270
 20
252.708648
  0
VERTEX
  8
14 公・官庁施設
 10
-342.862197
 20
252.558440
  0
SEQEND
  0
POLYLINE
  8
14 公・官庁施設
 40
0.105834
 41
0.105834
 66
1
 10
0
 20
0
 30
0
 70
1
  0
VERTEX
  8
14 公・官庁施設
 10
-337.522954
 20
214.499886
  0
VERTEX
  8
14 公・官庁施設
 10
-338.023874
 20
214.798578
  0
VERTEX
  8
14 公・官庁施設
 10
-338.991263
 20
213.277214
  0
VERTEX
  8
14 公・官庁施設
 10
-335.916840
 20
211.283180
  0
VERTEX
  8
14 公・官庁施設
 10
-335.369067
 20
212.163752
  0
VERTEX
  8
14 公・官庁施設
 10
-334.888817
 20
211.864716
  0
VERTEX
  8
14 公・官庁施設
 10
-333.941410
 20
213.386769
  0
VERTEX
  8
14 公・官庁施設
 10
-336.995162
 20
215.330504
  0
SEQEND
  0
POLYLINE
  8
14 公・官庁施設
 40
0.105834
 41
0.105834
 66
1
 10
0
 20
0
 30
0
 70
1
  0
VERTEX
  8
14 公・官庁施設
 10
-325.164630
 20
242.963445
  0
VERTEX
  8
14 公・官庁施設
 10
-326.440701
 20
240.940816
  0
VERTEX
  8
14 公・官庁施設
 10
-325.209416
 20
240.193226
  0
VERTEX
  8
14 公・官庁施設
 10
-325.039916
 20
240.473658
  0
VERTEX
  8
14 公・官庁施設
 10
-323.137523
 20
239.296806
  0
VERTEX
  8
14 公・官庁施設
 10
-323.038303
 20
239.447358
  0
VERTEX
  8
14 公・官庁施設
 10
-322.787499
 20
239.297495
  0
VERTEX
  8
14 公・官庁施設
 10
-322.139817
 20
240.378573
  0
VERTEX
  8
14 公・官庁施設
 10
-322.389932
 20
240.529125
  0
VERTEX
  8
14 公・官庁施設
 10
-322.260396
 20
240.718951
  0
VERTEX
  8
14 公・官庁施設
 10
-324.162790
 20
241.895114
  0
VERTEX
  8
14 公・官庁施設
 10
-323.963317
 20
242.245138
  0
SEQEND
  0
POLYLINE
  8
15 病院
 40
0.105834
 41
0.105834
 62
4
 66
1
 10
0
 20
0
 30
0
 70
1
  0
VERTEX
  8
15 病院
 10
-321.317467
 20
166.454627
  0
VERTEX
  8
15 病院
 10
-321.217559
 20
166.554535
  0
VERTEX
  8
15 病院
 10
-320.716983
 20
166.235517
  0
VERTEX
  8
15 病院
 10
-319.799893
 20
167.637680
  0
VERTEX
  8
15 病院
 10
-317.825152
 20
170.510908
  0
VERTEX
  8
15 病院
 10
-317.575036
 20
170.341408
  0
VERTEX
  8
15 病院
 10
-316.129465
 20
172.483926
  0
VERTEX
  8
15 病院
 10
-317.530939
 20
173.381379
  0
VERTEX
  8
15 病院
 10
-318.956873
 20
171.279169
  0
VERTEX
  8
15 病院
 10
-318.606505
 20
171.059370
  0
VERTEX
  8
15 病院
 10
-318.756023
 20
170.858864
  0
VERTEX
  8
15 病院
 10
-319.226626
 20
171.157901
  0
VERTEX
  8
15 病院
 10
-320.473069
 20
169.326476
  0
VERTEX
  8
15 病院
 10
-320.803111
 20
169.535250
  0
VERTEX
  8
15 病院
 10
-318.160706
 20
173.460617
  0
VERTEX
  8
15 病院
 10
-319.683104
 20
174.457634
  0
VERTEX
  8
15 病院
 10
-322.225256
 20
170.632865
  0
VERTEX
  8
15 病院
 10
-322.555298
 20
170.851974
  0
VERTEX
  8
15 病院
 10
-321.678171
 20
172.133558
  0
VERTEX
  8
15 病院
 10
-322.929438
 20
172.951429
  0
VERTEX
  8
15 病院
 10
-325.651769
 20
168.865520
  0
VERTEX
  8
15 病院
 10
-325.121221
 20
168.526865
  0
VERTEX
  8
15 病院
 10
-325.151194
 20
168.397673
  0
VERTEX
  8
15 病院
 10
-324.950343
 20
168.268136
  0
VERTEX
  8
15 病院
 10
-324.851124
 20
168.377691
  0
VERTEX
  8
15 病院
 10
-324.370186
 20
168.049027
  0
VERTEX
  8
15 病院
 10
-323.522687
 20
169.299604
  0
VERTEX
  8
15 病院
 10
-321.450104
 20
167.934649
  0
VERTEX
  8
15 病院
 10
-321.998222
 20
167.102998
  0
VERTEX
  8
15 病院
 10
-321.467674
 20
166.754352
  0
VERTEX
  8
15 病院
 10
-321.546912
 20
166.604145
  0
SEQEND
  0
POLYLINE
  8
16 学校
 40
0.105834
 41
0.105834
 62
1
 66
1
 10
0
 20
0
 30
0
 70
1
  0
VERTEX
  8
16 学校
 10
-413.235605
 20
188.755559
  0
VERTEX
  8
16 学校
 10
-415.359865
 20
191.171964
  0
VERTEX
  8
16 学校
 10
-415.490090
 20
191.121666
  0
VERTEX
  8
16 学校
 10
-415.991010
 20
191.670817
  0
VERTEX
  8
16 学校
 10
-417.009042
 20
190.738569
  0
VERTEX
  8
16 学校
 10
-417.390072
 20
191.187812
  0
VERTEX
  8
16 学校
 10
-416.960811
 20
191.598814
  0
VERTEX
  8
16 学校
 10
-417.090692
 20
191.747988
  0
VERTEX
  8
16 学校
 10
-417.011454
 20
191.848585
  0
VERTEX
  8
16 学校
 10
-419.816813
 20
195.082861
  0
VERTEX
  8
16 学校
 10
-421.395021
 20
193.710327
  0
VERTEX
  8
16 学校
 10
-421.395021
 20
193.640046
  0
VERTEX
  8
16 学校
 10
-424.702678
 20
190.658642
  0
VERTEX
  8
16 学校
 10
-424.822913
 20
190.637971
  0
VERTEX
  8
16 学校
 10
-425.401692
 20
190.087441
  0
VERTEX
  8
16 学校
 10
-424.149048
 20
188.689413
  0
VERTEX
  8
16 学校
 10
-423.519969
 20
189.270260
  0
VERTEX
  8
16 学校
 10
-423.400079
 20
189.161394
  0
VERTEX
  8
16 学校
 10
-421.359192
 20
191.030025
  0
VERTEX
  8
16 学校
 10
-420.141687
 20
192.112481
  0
VERTEX
  8
16 学校
 10
-418.538330
 20
190.365807
  0
VERTEX
  8
16 学校
 10
-417.889614
 20
190.947343
  0
VERTEX
  8
16 学校
 10
-417.809343
 20
190.887398
  0
VERTEX
  8
16 学校
 10
-417.659825
 20
190.947343
  0
VERTEX
  8
16 学校
 10
-417.258813
 20
190.518081
  0
VERTEX
  8
16 学校
 10
-417.637776
 20
190.167368
  0
VERTEX
  8
16 学校
 10
-417.137201
 20
189.648533
  0
VERTEX
  8
16 学校
 10
-417.136856
 20
189.538290
  0
VERTEX
  8
16 学校
 10
-414.982280
 20
187.142555
  0
SEQEND
  0
POLYLINE
  8
16 学校
 40
0.105834
 41
0.105834
 62
1
 66
1
 10
0
 20
0
 30
0
  0
VERTEX
  8
16 学校
 10
-394.749796
 20
157.824263
  0
VERTEX
  8
16 学校
 10
-394.127607
 20
158.344821
  0
VERTEX
  8
16 学校
 10
-393.998071
 20
158.344821
  0
VERTEX
  8
16 学校
 10
-393.727974
 20
158.565308
  0
VERTEX
  8
16 学校
 10
-393.077191
 20
157.824263
  0
SEQEND
  0
POLYLINE
  8
16 学校
 40
0.105834
 41
0.105834
 62
1
 66
1
 10
0
 20
0
 30
0
  0
VERTEX
  8
16 学校
 10
-390.132994
 20
157.824263
  0
VERTEX
  8
16 学校
 10
-391.881391
 20
159.798660
  0
VERTEX
  8
16 学校
 10
-393.298023
 20
158.496406
  0
VERTEX
  8
16 学校
 10
-392.694783
 20
157.824263
  0
SEQEND
  0
POLYLINE
  8
16 学校
 40
0.105834
 41
0.105834
 62
1
 66
1
 10
0
 20
0
 30
0
  0
VERTEX
  8
16 学校
 10
-388.113122
 20
157.824263
  0
VERTEX
  8
16 学校
 10
-387.997366
 20
157.926583
  0
VERTEX
  8
16 学校
 10
-388.397689
 20
158.375827
  0
VERTEX
  8
16 学校
 10
-387.399983
 20
159.257777
  0
VERTEX
  8
16 学校
 10
-386.998971
 20
158.828515
  0
VERTEX
  8
16 学校
 10
-386.380228
 20
159.359752
  0
VERTEX
  8
16 学校
 10
-385.044211
 20
157.824263
  0
SEQEND
  0
POLYLINE
  8
16 学校
 40
0.105834
 41
0.105834
 62
1
 66
1
 10
0
 20
0
 30
0
 70
1
  0
VERTEX
  8
16 学校
 10
-334.643870
 20
180.607857
  0
VERTEX
  8
16 学校
 10
-332.741820
 20
179.481993
  0
VERTEX
  8
16 学校
 10
-332.591958
 20
179.682498
  0
VERTEX
  8
16 学校
 10
-332.121355
 20
179.383462
  0
VERTEX
  8
16 学校
 10
-332.021446
 20
179.463045
  0
VERTEX
  8
16 学校
 10
-331.591151
 20
179.183646
  0
VERTEX
  8
16 学校
 10
-329.976080
 20
181.586959
  0
VERTEX
  8
16 学校
 10
-330.396385
 20
181.905977
  0
VERTEX
  8
16 学校
 10
-330.426702
 20
182.016221
  0
VERTEX
  8
16 学校
 10
-335.533054
 20
185.326289
  0
VERTEX
  8
16 学校
 10
-335.547868
 20
185.298729
  0
VERTEX
  8
16 学校
 10
-337.163284
 20
182.896104
  0
VERTEX
  8
16 学校
 10
-336.527315
 20
182.474421
  0
VERTEX
  8
16 学校
 10
-339.910420
 20
177.323971
  0
VERTEX
  8
16 学校
 10
-337.787539
 20
175.918363
  0
SEQEND
  0
POLYLINE
  8
16 学校
 40
0.105834
 41
0.105834
 62
1
 66
1
 10
0
 20
0
 30
0
 70
1
  0
VERTEX
  8
16 学校
 10
-325.630409
 20
173.196032
  0
VERTEX
  8
16 学校
 10
-325.310014
 20
172.996215
  0
VERTEX
  8
16 学校
 10
-324.412216
 20
174.328097
  0
VERTEX
  8
16 学校
 10
-327.366060
 20
176.323165
  0
VERTEX
  8
16 学校
 10
-326.916816
 20
177.043539
  0
VERTEX
  8
16 学校
 10
-326.537164
 20
176.814094
  0
VERTEX
  8
16 学校
 10
-326.716999
 20
176.513680
  0
VERTEX
  8
16 学校
 10
-324.148665
 20
174.775274
  0
VERTEX
  8
16 学校
 10
-322.821950
 20
176.778265
  0
VERTEX
  8
16 学校
 10
-328.193921
 20
180.320534
  0
VERTEX
  8
16 学校
 10
-330.666137
 20
176.566045
  0
VERTEX
  8
16 学校
 10
-330.315769
 20
176.336601
  0
VERTEX
  8
16 学校
 10
-330.385360
 20
176.206375
  0
VERTEX
  8
16 学校
 10
-325.729629
 20
173.125751
  0
SEQEND
  0
POLYLINE
  8
17 その他施設
 40
0.105834
 41
0.105834
 66
1
 10
0
 20
0
 30
0
  0
VERTEX
  8
17 その他施設
 10
-360.987647
 20
307.860495
  0
VERTEX
  8
17 その他施設
 10
-359.808384
 20
307.084310
  0
VERTEX
  8
17 その他施設
 10
-358.300456
 20
307.226938
  0
VERTEX
  8
17 その他施設
 10
-357.908057
 20
307.860495
  0
SEQEND
  0
POLYLINE
  8
17 その他施設
 40
0.105834
 41
0.105834
 66
1
 10
0
 20
0
 30
0
 70
1
  0
VERTEX
  8
17 その他施設
 10
-346.606350
 20
199.999733
  0
VERTEX
  8
17 その他施設
 10
-347.729458
 20
202.458857
  0
VERTEX
  8
17 その他施設
 10
-349.499559
 20
204.501812
  0
VERTEX
  8
17 その他施設
 10
-351.773337
 20
205.963230
  0
VERTEX
  8
17 その他施設
 10
-354.367510
 20
206.724601
  0
VERTEX
  8
17 その他施設
 10
-357.070549
 20
206.724601
  0
VERTEX
  8
17 その他施設
 10
-359.664033
 20
205.963230
  0
VERTEX
  8
17 その他施設
 10
-361.938155
 20
204.501812
  0
VERTEX
  8
17 その他施設
 10
-363.708601
 20
202.458857
  0
VERTEX
  8
17 その他施設
 10
-364.831364
 20
199.999733
  0
VERTEX
  8
17 その他施設
 10
-365.216184
 20
197.324255
  0
VERTEX
  8
17 その他施設
 10
-364.831364
 20
194.648777
  0
VERTEX
  8
17 その他施設
 10
-363.708601
 20
192.189652
  0
VERTEX
  8
17 その他施設
 10
-361.938155
 20
190.146697
  0
VERTEX
  8
17 その他施設
 10
-359.664033
 20
188.685279
  0
VERTEX
  8
17 その他施設
 10
-357.070549
 20
187.923908
  0
VERTEX
  8
17 その他施設
 10
-354.367510
 20
187.923908
  0
VERTEX
  8
17 その他施設
 10
-351.773681
 20
188.685279
  0
VERTEX
  8
17 その他施設
 10
-349.499559
 20
190.146697
  0
VERTEX
  8
17 その他施設
 10
-347.729458
 20
192.189652
  0
VERTEX
  8
17 その他施設
 10
-346.606350
 20
194.648777
  0
VERTEX
  8
17 その他施設
 10
-346.221875
 20
197.324255
  0
SEQEND
  0
POLYLINE
  8
17 その他施設
 40
0.105834
 41
0.105834
 66
1
 10
0
 20
0
 30
0
 70
1
  0
VERTEX
  8
17 その他施設
 10
-352.701451
 20
190.716864
  0
VERTEX
  8
17 その他施設
 10
-355.536783
 20
190.133606
  0
VERTEX
  8
17 その他施設
 10
-362.838364
 20
198.334363
  0
VERTEX
  8
17 その他施設
 10
-362.689535
 20
199.370654
  0
VERTEX
  8
17 その他施設
 10
-361.829978
 20
201.251688
  0
VERTEX
  8
17 その他施設
 10
-360.476392
 20
202.814393
  0
VERTEX
  8
17 その他施設
 10
-358.736608
 20
203.931989
  0
VERTEX
  8
17 その他施設
 10
-356.752909
 20
204.514903
  0
VERTEX
  8
17 その他施設
 10
-354.685494
 20
204.514903
  0
VERTEX
  8
17 その他施設
 10
-352.701107
 20
203.931989
  0
VERTEX
  8
17 その他施設
 10
-350.961667
 20
202.814393
  0
VERTEX
  8
17 その他施設
 10
-349.607736
 20
201.251688
  0
SEQEND
  0
POLYLINE
  8
18 高速分離帯
 40
0.105834
 41
0.105834
 62
5
 66
1
 10
0
 20
0
 30
0
  0
VERTEX
  8
18 高速分離帯
 10
-335.323591
 20
168.291563
  0
VERTEX
  8
18 高速分離帯
 10
-342.542145
 20
173.111282
  0
VERTEX
  8
18 高速分離帯
 10
-348.140805
 20
176.941563
  0
VERTEX
  8
18 高速分離帯
 10
-354.472931
 20
180.619570
  0
SEQEND
  0
POLYLINE
  8
18 高速分離帯
 40
0.105834
 41
0.105834
 62
5
 66
1
 10
0
 20
0
 30
0
  0
VERTEX
  8
18 高速分離帯
 10
-335.323591
 20
168.291563
  0
VERTEX
  8
18 高速分離帯
 10
-316.798507
 20
157.984461
  0
VERTEX
  8
18 高速分離帯
 10
-316.432291
 20
157.824263
  0
SEQEND
  0
POLYLINE
  8
18 高速分離帯
 40
0.105834
 41
0.105834
 62
5
 66
1
 10
0
 20
0
 30
0
  0
VERTEX
  8
18 高速分離帯
 10
-284.247662
 20
170.877813
  0
VERTEX
  8
18 高速分離帯
 10
-287.052332
 20
169.259641
  0
VERTEX
  8
18 高速分離帯
 10
-306.493128
 20
157.824263
  0
SEQEND
  0
POLYLINE
  8
18 高速分離帯
 40
0.105834
 41
0.105834
 62
5
 66
1
 10
0
 20
0
 30
0
  0
VERTEX
  8
18 高速分離帯
 10
-359.392558
 20
179.517133
  0
VERTEX
  8
18 高速分離帯
 10
-358.348687
 20
178.919061
  0
VERTEX
  8
18 高速分離帯
 10
-358.243956
 20
178.709597
  0
VERTEX
  8
18 高速分離帯
 10
-358.389340
 20
177.494849
  0
VERTEX
  8
18 高速分離帯
 10
-358.645312
 20
176.450290
  0
SEQEND
  0
POLYLINE
  8
18 高速分離帯
 40
0.105834
 41
0.105834
 62
5
 66
1
 10
0
 20
0
 30
0
  0
VERTEX
  8
18 高速分離帯
 10
-356.329849
 20
178.434677
  0
VERTEX
  8
18 高速分離帯
 10
-356.276105
 20
179.124390
  0
VERTEX
  8
18 高速分離帯
 10
-356.448361
 20
179.670096
  0
VERTEX
  8
18 高速分離帯
 10
-356.840415
 20
180.241297
  0
VERTEX
  8
18 高速分離帯
 10
-358.489248
 20
181.136338
  0
VERTEX
  8
18 高速分離帯
 10
-357.159433
 20
180.652643
  0
VERTEX
  8
18 高速分離帯
 10
-355.927459
 20
180.328113
  0
VERTEX
  8
18 高速分離帯
 10
-355.184003
 20
180.373589
  0
VERTEX
  8
18 高速分離帯
 10
-354.501870
 20
180.605101
  0
VERTEX
  8
18 高速分離帯
 10
-353.854188
 20
181.012314
  0
VERTEX
  8
18 高速分離帯
 10
-353.205816
 20
181.611764
  0
SEQEND
  0
POLYLINE
  8
18 高速分離帯
 40
0.105834
 41
0.105834
 62
5
 66
1
 10
0
 20
0
 30
0
  0
VERTEX
  8
18 高速分離帯
 10
-353.693990
 20
182.168495
  0
VERTEX
  8
18 高速分離帯
 10
-354.049181
 20
181.892886
  0
VERTEX
  8
18 高速分離帯
 10
-354.719601
 20
181.378185
  0
VERTEX
  8
18 高速分離帯
 10
-355.257039
 20
181.211442
  0
VERTEX
  8
18 高速分離帯
 10
-355.850977
 20
181.183881
  0
VERTEX
  8
18 高速分離帯
 10
-356.949970
 20
181.475337
  0
VERTEX
  8
18 高速分離帯
 10
-356.548614
 20
181.450533
  0
VERTEX
  8
18 高速分離帯
 10
-355.888529
 20
181.625545
  0
VERTEX
  8
18 高速分離帯
 10
-355.385198
 20
181.807447
  0
VERTEX
  8
18 高速分離帯
 10
-355.187792
 20
182.123020
  0
VERTEX
  8
18 高速分離帯
 10
-355.036207
 20
182.784482
  0
VERTEX
  8
18 高速分離帯
 10
-355.109933
 20
182.978098
  0
VERTEX
  8
18 高速分離帯
 10
-355.311128
 20
183.461103
  0
VERTEX
  8
18 高速分離帯
 10
-355.646682
 20
183.834554
  0
VERTEX
  8
18 高速分離帯
 10
-356.216160
 20
184.143925
  0
VERTEX
  8
18 高速分離帯
 10
-367.118922
 20
189.722259
  0
SEQEND
  0
POLYLINE
  8
18 高速分離帯
 40
0.105834
 41
0.105834
 62
5
 66
1
 10
0
 20
0
 30
0
  0
VERTEX
  8
18 高速分離帯
 10
-344.388039
 20
169.549031
  0
VERTEX
  8
18 高速分離帯
 10
-346.084759
 20
171.255053
  0
VERTEX
  8
18 高速分離帯
 10
-347.768044
 20
172.745411
  0
VERTEX
  8
18 高速分離帯
 10
-349.445816
 20
173.869897
  0
VERTEX
  8
18 高速分離帯
 10
-350.979582
 20
174.759082
  0
VERTEX
  8
18 高速分離帯
 10
-352.626348
 20
175.736461
  0
VERTEX
  8
18 高速分離帯
 10
-356.903805
 20
177.963730
  0
SEQEND
  0
POLYLINE
  8
18 高速分離帯
 40
0.105834
 41
0.105834
 62
5
 66
1
 10
0
 20
0
 30
0
  0
VERTEX
  8
18 高速分離帯
 10
-344.388039
 20
169.549031
  0
VERTEX
  8
18 高速分離帯
 10
-341.445220
 20
165.913743
  0
VERTEX
  8
18 高速分離帯
 10
-339.964164
 20
163.064631
  0
VERTEX
  8
18 高速分離帯
 10
-338.947854
 20
160.805323
  0
VERTEX
  8
18 高速分離帯
 10
-338.508258
 20
158.882259
  0
VERTEX
  8
18 高速分離帯
 10
-338.428675
 20
157.824263
  0
SEQEND
  0
POLYLINE
  8
18 高速分離帯
 40
0.105834
 41
0.105834
 62
5
 66
1
 10
0
 20
0
 30
0
  0
VERTEX
  8
18 高速分離帯
 10
-367.195059
 20
183.018061
  0
VERTEX
  8
18 高速分離帯
 10
-371.003292
 20
185.102357
  0
VERTEX
  8
18 高速分離帯
 10
-374.171422
 20
187.908749
  0
VERTEX
  8
18 高速分離帯
 10
-378.188773
 20
190.752005
  0
VERTEX
  8
18 高速分離帯
 10
-382.784215
 20
193.443675
  0
VERTEX
  8
18 高速分離帯
 10
-389.886324
 20
197.945754
  0
VERTEX
  8
18 高速分離帯
 10
-393.305602
 20
200.338043
  0
VERTEX
  8
18 高速分離帯
 10
-396.984299
 20
203.838282
  0
VERTEX
  8
18 高速分離帯
 10
-403.795295
 20
211.656631
  0
VERTEX
  8
18 高速分離帯
 10
-405.410366
 20
213.630683
  0
VERTEX
  8
18 高速分離帯
 10
-425.265610
 20
242.815649
  0
VERTEX
  8
18 高速分離帯
 10
-428.915023
 20
247.946118
  0
VERTEX
  8
18 高速分離帯
 10
-430.178692
 20
251.341970
  0
VERTEX
  8
18 高速分離帯
 10
-430.678923
 20
254.369883
  0
VERTEX
  8
18 高速分離帯
 10
-430.913880
 20
257.309602
  0
VERTEX
  8
18 高速分離帯
 10
-430.502533
 20
259.896885
  0
VERTEX
  8
18 高速分離帯
 10
-429.003218
 20
262.278150
  0
VERTEX
  8
18 高速分離帯
 10
-426.998849
 20
264.073400
  0
VERTEX
  8
18 高速分離帯
 10
-425.210833
 20
265.541365
  0
VERTEX
  8
18 高速分離帯
 10
-423.226445
 20
267.701798
  0
VERTEX
  8
18 高速分離帯
 10
-421.815325
 20
270.259453
  0
VERTEX
  8
18 高速分離帯
 10
-421.109765
 20
272.420575
  0
VERTEX
  8
18 高速分離帯
 10
-420.643985
 20
275.035074
  0
VERTEX
  8
18 高速分離帯
 10
-420.537187
 20
278.290710
  0
VERTEX
  8
18 高速分離帯
 10
-420.622281
 20
279.851348
  0
VERTEX
  8
18 高速分離帯
 10
-420.865162
 20
281.275215
  0
VERTEX
  8
18 高速分離帯
 10
-421.223454
 20
283.066331
  0
VERTEX
  8
18 高速分離帯
 10
-421.674075
 20
284.591485
  0
VERTEX
  8
18 高速分離帯
 10
-422.469898
 20
286.528674
  0
VERTEX
  8
18 高速分離帯
 10
-423.567512
 20
288.316690
  0
VERTEX
  8
18 高速分離帯
 10
-424.494937
 20
289.499054
  0
VERTEX
  8
18 高速分離帯
 10
-434.355552
 20
297.275372
  0
SEQEND
  0
POLYLINE
  8
18 高速分離帯
 40
0.105834
 41
0.105834
 62
5
 66
1
 10
0
 20
0
 30
0
  0
VERTEX
  8
18 高速分離帯
 10
-358.697678
 20
182.312501
  0
VERTEX
  8
18 高速分離帯
 10
-356.770824
 20
182.167117
  0
VERTEX
  8
18 高速分離帯
 10
-356.313312
 20
182.195367
  0
VERTEX
  8
18 高速分離帯
 10
-356.011175
 20
182.413787
  0
VERTEX
  8
18 高速分離帯
 10
-355.971212
 20
182.852695
  0
VERTEX
  8
18 高速分離帯
 10
-356.213748
 20
183.193762
  0
VERTEX
  8
18 高速分離帯
 10
-356.599601
 20
183.410115
  0
VERTEX
  8
18 高速分離帯
 10
-372.939792
 20
191.544726
  0
SEQEND
  0
POLYLINE
  8
18 高速分離帯
 40
0.105834
 41
0.105834
 62
5
 66
1
 10
0
 20
0
 30
0
  0
VERTEX
  8
18 高速分離帯
 10
-373.381112
 20
189.105583
  0
VERTEX
  8
18 高速分離帯
 10
-358.489248
 20
181.136338
  0
SEQEND
  0
POLYLINE
  8
18 高速分離帯
 40
0.105834
 41
0.105834
 62
5
 66
1
 10
0
 20
0
 30
0
  0
VERTEX
  8
18 高速分離帯
 10
-358.697678
 20
182.312501
  0
VERTEX
  8
18 高速分離帯
 10
-373.087588
 20
189.847661
  0
SEQEND
  0
POLYLINE
  8
18 高速分離帯
 40
0.105834
 41
0.105834
 62
5
 66
1
 10
0
 20
0
 30
0
  0
VERTEX
  8
18 高速分離帯
 10
-373.859294
 20
188.458935
  0
VERTEX
  8
18 高速分離帯
 10
-370.926810
 20
186.628544
  0
VERTEX
  8
18 高速分離帯
 10
-366.560124
 20
184.296199
  0
VERTEX
  8
18 高速分離帯
 10
-364.264643
 20
182.304922
  0
VERTEX
  8
18 高速分離帯
 10
-359.392558
 20
179.517133
  0
SEQEND
  0
POLYLINE
  8
18 高速分離帯
 40
0.105834
 41
0.105834
 62
5
 66
1
 10
0
 20
0
 30
0
  0
VERTEX
  8
18 高速分離帯
 10
-357.006125
 20
182.167117
  0
VERTEX
  8
18 高速分離帯
 10
-358.372114
 20
182.937790
  0
VERTEX
  8
18 高速分離帯
 10
-372.741698
 20
190.419551
  0
VERTEX
  8
18 高速分離帯
 10
-381.624244
 20
195.161755
  0
VERTEX
  8
18 高速分離帯
 10
-388.772173
 20
199.385124
  0
VERTEX
  8
18 高速分離帯
 10
-391.968208
 20
201.743651
  0
VERTEX
  8
18 高速分離帯
 10
-395.580758
 20
205.181189
  0
VERTEX
  8
18 高速分離帯
 10
-402.312517
 20
212.908587
  0
VERTEX
  8
18 高速分離帯
 10
-403.853518
 20
214.792377
  0
VERTEX
  8
18 高速分離帯
 10
-423.611609
 20
243.948404
  0
VERTEX
  8
18 高速分離帯
 10
-426.886538
 20
249.048900
  0
VERTEX
  8
18 高速分離帯
 10
-427.885622
 20
251.826698
  0
VERTEX
  8
18 高速分離帯
 10
-428.562243
 20
254.854956
  0
VERTEX
  8
18 高速分離帯
 10
-428.694535
 20
257.030203
  0
VERTEX
  8
18 高速分離帯
 10
-428.474048
 20
259.014935
  0
VERTEX
  8
18 高速分離帯
 10
-427.503903
 20
260.690640
  0
VERTEX
  8
18 高速分離帯
 10
-425.872295
 20
262.586488
  0
VERTEX
  8
18 高速分離帯
 10
-424.064298
 20
264.042050
  0
VERTEX
  8
18 高速分離帯
 10
-421.638935
 20
266.511510
  0
VERTEX
  8
18 高速分離帯
 10
-419.963230
 20
269.510140
  0
VERTEX
  8
18 高速分離帯
 10
-419.125378
 20
272.287938
  0
VERTEX
  8
18 高速分離帯
 10
-418.689915
 20
274.944812
  0
VERTEX
  8
18 高速分離帯
 10
-418.595174
 20
278.308624
  0
VERTEX
  8
18 高速分離帯
 10
-418.691293
 20
280.067701
  0
VERTEX
  8
18 高速分離帯
 10
-418.957256
 20
281.627995
  0
VERTEX
  8
18 高速分離帯
 10
-419.338286
 20
283.533145
  0
VERTEX
  8
18 高速分離帯
 10
-419.841618
 20
285.236755
  0
VERTEX
  8
18 高速分離帯
 10
-420.734592
 20
287.410624
  0
VERTEX
  8
18 高速分離帯
 10
-421.914545
 20
289.332310
  0
VERTEX
  8
18 高速分離帯
 10
-423.387677
 20
290.978387
  0
VERTEX
  8
18 高速分離帯
 10
-434.355552
 20
299.744488
  0
SEQEND
  0
POLYLINE
  8
18 高速分離帯
 40
0.105834
 41
0.105834
 62
5
 66
1
 10
0
 20
0
 30
0
  0
VERTEX
  8
18 高速分離帯
 10
-367.195059
 20
183.018061
  0
VERTEX
  8
18 高速分離帯
 10
-358.270828
 20
178.558701
  0
SEQEND
  0
POLYLINE
  8
18 高速分離帯
 40
0.105834
 41
0.105834
 62
5
 66
1
 10
0
 20
0
 30
0
  0
VERTEX
  8
18 高速分離帯
 10
-335.732182
 20
167.526058
  0
VERTEX
  8
18 高速分離帯
 10
-343.012059
 20
172.464289
  0
VERTEX
  8
18 高速分離帯
 10
-348.656539
 20
176.227046
  0
VERTEX
  8
18 高速分離帯
 10
-355.607752
 20
180.316400
  0
SEQEND
  0
POLYLINE
  8
18 高速分離帯
 40
0.105834
 41
0.105834
 62
5
 66
1
 10
0
 20
0
 30
0
  0
VERTEX
  8
18 高速分離帯
 10
-324.536585
 20
160.970000
  0
VERTEX
  8
18 高速分離帯
 10
-319.046791
 20
157.824263
  0
SEQEND
  0
POLYLINE
  8
18 高速分離帯
 40
0.105834
 41
0.105834
 62
5
 66
1
 10
0
 20
0
 30
0
  0
VERTEX
  8
18 高速分離帯
 10
-335.732182
 20
167.526058
  0
VERTEX
  8
18 高速分離帯
 10
-318.323316
 20
157.824263
  0
SEQEND
  0
POLYLINE
  8
18 高速分離帯
 40
0.105834
 41
0.105834
 62
5
 66
1
 10
0
 20
0
 30
0
  0
VERTEX
  8
18 高速分離帯
 10
-322.879483
 20
157.824263
  0
VERTEX
  8
18 高速分離帯
 10
-323.653601
 20
158.295211
  0
VERTEX
  8
18 高速分離帯
 10
-325.285209
 20
159.221258
  0
VERTEX
  8
18 高速分離帯
 10
-327.005011
 20
160.147306
  0
VERTEX
  8
18 高速分離帯
 10
-328.162571
 20
160.427050
  0
VERTEX
  8
18 高速分離帯
 10
-329.426240
 20
160.294068
  0
VERTEX
  8
18 高速分離帯
 10
-330.339885
 20
159.793837
  0
VERTEX
  8
18 高速分離帯
 10
-330.804976
 20
159.019375
  0
VERTEX
  8
18 高速分離帯
 10
-330.849073
 20
158.217351
  0
VERTEX
  8
18 高速分離帯
 10
-330.802564
 20
157.824263
  0
SEQEND
  0
POLYLINE
  8
18 高速分離帯
 40
0.105834
 41
0.105834
 62
5
 66
1
 10
0
 20
0
 30
0
  0
VERTEX
  8
18 高速分離帯
 10
-343.159855
 20
170.554316
  0
VERTEX
  8
18 高速分離帯
 10
-340.110926
 20
166.788114
  0
VERTEX
  8
18 高速分離帯
 10
-338.535129
 20
163.757100
  0
VERTEX
  8
18 高速分離帯
 10
-337.435448
 20
161.313134
  0
VERTEX
  8
18 高速分離帯
 10
-336.934528
 20
159.119972
  0
VERTEX
  8
18 高速分離帯
 10
-336.837031
 20
157.824263
  0
SEQEND
  0
POLYLINE
  8
18 高速分離帯
 40
0.105834
 41
0.105834
 62
5
 66
1
 10
0
 20
0
 30
0
  0
VERTEX
  8
18 高速分離帯
 10
-356.264392
 20
179.176066
  0
VERTEX
  8
18 高速分離帯
 10
-351.891160
 20
176.911935
  0
VERTEX
  8
18 高速分離帯
 10
-350.267132
 20
176.001046
  0
VERTEX
  8
18 高速分離帯
 10
-348.627945
 20
175.020566
  0
VERTEX
  8
18 高速分離帯
 10
-346.827527
 20
173.796171
  0
VERTEX
  8
18 高速分離帯
 10
-345.121504
 20
172.391252
  0
VERTEX
  8
18 高速分離帯
 10
-343.159855
 20
170.554316
  0
SEQEND
  0
POLYLINE
  8
18 高速分離帯
 40
0.105834
 41
0.105834
 62
5
 66
1
 10
0
 20
0
 30
0
  0
VERTEX
  8
18 高速分離帯
 10
-284.247662
 20
167.463701
  0
VERTEX
  8
18 高速分離帯
 10
-286.059793
 20
166.375389
  0
VERTEX
  8
18 高速分離帯
 10
-300.531697
 20
157.824263
  0
SEQEND
  0
POLYLINE
  8
18 高速分離帯
 40
0.105834
 41
0.105834
 62
5
 66
1
 10
0
 20
0
 30
0
  0
VERTEX
  8
18 高速分離帯
 10
-284.247662
 20
169.773997
  0
VERTEX
  8
18 高速分離帯
 10
-287.214597
 20
168.056262
  0
VERTEX
  8
18 高速分離帯
 10
-304.845673
 20
157.824263
  0
SEQEND
  0
POLYLINE
  8
18 高速分離帯
 40
0.105834
 41
0.105834
 62
5
 66
1
 10
0
 20
0
 30
0
  0
VERTEX
  8
18 高速分離帯
 10
-284.247662
 20
168.686373
  0
VERTEX
  8
18 高速分離帯
 10
-286.685427
 20
167.232534
  0
VERTEX
  8
18 高速分離帯
 10
-302.763789
 20
157.824263
  0
SEQEND
  0
POLYLINE
  8
18 高速分離帯
 40
0.105834
 41
0.105834
 62
5
 66
1
 10
0
 20
0
 30
0
  0
VERTEX
  8
18 高速分離帯
 10
-335.732182
 20
167.526058
  0
VERTEX
  8
18 高速分離帯
 10
-324.536585
 20
160.970000
  0
SEQEND
  0
POLYLINE
  8
18 高速分離帯
 40
0.105834
 41
0.105834
 62
5
 66
1
 10
0
 20
0
 30
0
  0
VERTEX
  8
18 高速分離帯
 10
-356.850061
 20
180.223382
  0
VERTEX
  8
18 高速分離帯
 10
-354.363031
 20
178.762652
  0
VERTEX
  8
18 高速分離帯
 10
-352.276668
 20
177.450752
  0
VERTEX
  8
18 高速分離帯
 10
-348.737155
 20
175.327870
  0
VERTEX
  8
18 高速分離帯
 10
-344.784228
 20
172.641023
  0
VERTEX
  8
18 高速分離帯
 10
-335.984709
 20
166.662023
  0
VERTEX
  8
18 高速分離帯
 10
-324.975148
 20
160.204495
  0
SEQEND
  0
POLYLINE
  8
18 高速分離帯
 40
0.105834
 41
0.105834
 62
5
 66
1
 10
0
 20
0
 30
0
  0
VERTEX
  8
18 高速分離帯
 10
-355.646682
 20
183.834554
  0
VERTEX
  8
18 高速分離帯
 10
-351.417456
 20
180.925497
  0
VERTEX
  8
18 高速分離帯
 10
-346.905386
 20
177.687776
  0
VERTEX
  8
18 高速分離帯
 10
-343.695915
 20
175.316846
  0
VERTEX
  8
18 高速分離帯
 10
-341.792832
 20
173.786525
  0
VERTEX
  8
18 高速分離帯
 10
-340.009640
 20
171.755284
  0
VERTEX
  8
18 高速分離帯
 10
-338.573026
 20
169.349214
  0
VERTEX
  8
18 高速分離帯
 10
-337.470588
 20
167.408924
  0
VERTEX
  8
18 高速分離帯
 10
-336.691647
 20
166.554535
  0
VERTEX
  8
18 高速分離帯
 10
-335.633307
 20
165.777317
  0
VERTEX
  8
18 高速分離帯
 10
-330.334372
 20
162.550620
  0
VERTEX
  8
18 高速分離帯
 10
-325.608705
 20
159.794526
  0
VERTEX
  8
18 高速分離帯
 10
-322.223878
 20
157.824263
  0
SEQEND
  0
POLYLINE
  8
18 高速分離帯
 40
0.105834
 41
0.105834
 62
5
 66
1
 10
0
 20
0
 30
0
  0
VERTEX
  8
18 高速分離帯
 10
-324.009482
 20
157.824263
  0
VERTEX
  8
18 高速分離帯
 10
-325.593891
 20
158.714137
  0
VERTEX
  8
18 高速分離帯
 10
-327.225499
 20
159.551990
  0
VERTEX
  8
18 高速分離帯
 10
-328.184619
 20
159.851026
  0
VERTEX
  8
18 高速分離帯
 10
-329.155109
 20
159.749050
  0
VERTEX
  8
18 高速分離帯
 10
-329.925093
 20
159.219880
  0
VERTEX
  8
18 高速分離帯
 10
-330.165562
 20
158.819558
  0
VERTEX
  8
18 高速分離帯
 10
-330.165562
 20
158.202193
  0
VERTEX
  8
18 高速分離帯
 10
-330.121120
 20
157.824263
  0
SEQEND
  0
POLYLINE
  8
18 高速分離帯
 40
0.105834
 41
0.105834
 62
5
 66
1
 10
0
 20
0
 30
0
  0
VERTEX
  8
18 高速分離帯
 10
-320.821026
 20
157.824263
  0
VERTEX
  8
18 高速分離帯
 10
-324.975148
 20
160.204495
  0
SEQEND
  0
POLYLINE
  8
18 高速分離帯
 40
0.105834
 41
0.105834
 62
5
 66
1
 10
0
 20
0
 30
0
  0
VERTEX
  8
18 高速分離帯
 10
-372.164985
 20
192.865584
  0
VERTEX
  8
18 高速分離帯
 10
-355.565377
 20
184.459498
  0
VERTEX
  8
18 高速分離帯
 10
-350.972692
 20
181.396789
  0
VERTEX
  8
18 高速分離帯
 10
-346.434783
 20
178.099123
  0
VERTEX
  8
18 高速分離帯
 10
-343.254940
 20
175.699254
  0
VERTEX
  8
18 高速分離帯
 10
-341.286400
 20
174.154463
  0
VERTEX
  8
18 高速分離帯
 10
-339.491838
 20
172.039162
  0
VERTEX
  8
18 高速分離帯
 10
-338.073484
 20
169.760561
  0
VERTEX
  8
18 高速分離帯
 10
-336.971046
 20
167.820271
  0
VERTEX
  8
18 高速分離帯
 10
-336.199340
 20
166.960370
  0
VERTEX
  8
18 高速分離帯
 10
-335.163049
 20
166.188663
  0
VERTEX
  8
18 高速分離帯
 10
-330.025690
 20
163.057741
  0
VERTEX
  8
18 高速分離帯
 10
-325.329306
 20
160.279598
  0
VERTEX
  8
18 高速分離帯
 10
-321.116961
 20
157.824263
  0
SEQEND
  0
POLYLINE
  8
19 鉄道駅
 40
0.105834
 41
0.105834
 62
6
 66
1
 10
0
 20
0
 30
0
 70
1
  0
VERTEX
  8
19 鉄道駅
 10
-389.285840
 20
204.216212
  0
VERTEX
  8
19 鉄道駅
 10
-392.460860
 20
207.156275
  0
VERTEX
  8
19 鉄道駅
 10
-395.224188
 20
209.802125
  0
VERTEX
  8
19 鉄道駅
 10
-397.987517
 20
212.712560
  0
VERTEX
  8
19 鉄道駅
 10
-398.899095
 20
211.830610
  0
VERTEX
  8
19 鉄道駅
 10
-396.076855
 20
208.890547
  0
VERTEX
  8
19 鉄道駅
 10
-393.313182
 20
206.244697
  0
VERTEX
  8
19 鉄道駅
 10
-390.138162
 20
203.304289
  0
VERTEX
  8
19 鉄道駅
 10
-385.611278
 20
199.424398
  0
VERTEX
  8
19 鉄道駅
 10
-384.758267
 20
200.335976
  0
SEQEND
  0
POLYLINE
  8
19 鉄道駅
 40
0.105834
 41
0.105834
 62
6
 66
1
 10
0
 20
0
 30
0
  0
VERTEX
  8
19 鉄道駅
 10
-434.355552
 20
276.799318
  0
VERTEX
  8
19 鉄道駅
 10
-432.971993
 20
275.021983
  0
VERTEX
  8
19 鉄道駅
 10
-431.649068
 20
275.948375
  0
VERTEX
  8
19 鉄道駅
 10
-434.355552
 20
279.425187
  0
SEQEND
  0
POLYLINE
  8
20 鉄道
 40
0.352780
 41
0.352780
 66
1
 10
0
 20
0
 30
0
  0
VERTEX
  8
20 鉄道
 10
-333.525240
 20
157.824263
  0
VERTEX
  8
20 鉄道
 10
-336.133883
 20
164.028920
  0
VERTEX
  8
20 鉄道
 10
-338.074173
 20
167.556720
  0
VERTEX
  8
20 鉄道
 10
-340.367243
 20
170.643545
  0
VERTEX
  8
20 鉄道
 10
-343.189483
 20
174.083150
  0
VERTEX
  8
20 鉄道
 10
-346.011723
 20
176.464415
  0
VERTEX
  8
20 鉄道
 10
-349.186743
 20
179.022070
  0
VERTEX
  8
20 鉄道
 10
-352.979128
 20
181.403335
  0
VERTEX
  8
20 鉄道
 10
-375.645243
 20
193.309660
  0
VERTEX
  8
20 鉄道
 10
-380.672358
 20
196.572875
  0
VERTEX
  8
20 鉄道
 10
-385.523083
 20
200.188870
  0
VERTEX
  8
20 鉄道
 10
-390.021028
 20
203.893060
  0
VERTEX
  8
20 鉄道
 10
-394.077998
 20
207.861835
  0
VERTEX
  8
20 鉄道
 10
-398.840528
 20
212.624365
  0
VERTEX
  8
20 鉄道
 10
-401.486378
 20
215.799385
  0
VERTEX
  8
20 鉄道
 10
-404.485008
 20
219.503575
  0
VERTEX
  8
20 鉄道
 10
-420.889278
 20
243.051640
  0
VERTEX
  8
20 鉄道
 10
-422.388593
 20
245.521100
  0
VERTEX
  8
20 鉄道
 10
-423.887908
 20
249.225290
  0
VERTEX
  8
20 鉄道
 10
-424.681663
 20
252.664895
  0
VERTEX
  8
20 鉄道
 10
-425.563613
 20
256.633670
  0
VERTEX
  8
20 鉄道
 10
-426.357368
 20
260.867030
  0
VERTEX
  8
20 鉄道
 10
-427.151123
 20
264.571220
  0
VERTEX
  8
20 鉄道
 10
-428.650438
 20
268.892775
  0
VERTEX
  8
20 鉄道
 10
-429.973363
 20
271.979600
  0
VERTEX
  8
20 鉄道
 10
-431.472678
 20
274.449060
  0
VERTEX
  8
20 鉄道
 10
-434.355552
 20
278.137747
  0
SEQEND
  0
POLYLINE
  8
21 デッキ・歩道橋
 40
0.035278
 41
0.035278
 62
37
 66
1
 10
0
 20
0
 30
0
 70
1
  0
VERTEX
  8
21 デッキ・歩道橋
 10
-298.509758
 20
244.746293
  0
VERTEX
  8
21 デッキ・歩道橋
 10
-307.874276
 20
251.468405
  0
VERTEX
  8
21 デッキ・歩道橋
 10
-311.788273
 20
253.487244
  0
VERTEX
  8
21 デッキ・歩道橋
 10
-315.643015
 20
254.854267
  0
VERTEX
  8
21 デッキ・歩道橋
 10
-318.851797
 20
256.372185
  0
VERTEX
  8
21 デッキ・歩道橋
 10
-324.859392
 20
259.990936
  0
VERTEX
  8
21 デッキ・歩道橋
 10
-327.461145
 20
262.476244
  0
VERTEX
  8
21 デッキ・歩道橋
 10
-329.783154
 20
266.134269
  0
VERTEX
  8
21 デッキ・歩道橋
 10
-331.420962
 20
270.052745
  0
VERTEX
  8
21 デッキ・歩道橋
 10
-332.647769
 20
273.911277
  0
VERTEX
  8
21 デッキ・歩道橋
 10
-333.151789
 20
273.750734
  0
VERTEX
  8
21 デッキ・歩道橋
 10
-331.917059
 20
269.870154
  0
VERTEX
  8
21 デッキ・歩道橋
 10
-330.262714
 20
265.908959
  0
VERTEX
  8
21 デッキ・歩道橋
 10
-330.254446
 20
265.888288
  0
VERTEX
  8
21 デッキ・歩道橋
 10
-327.873181
 20
262.137933
  0
VERTEX
  8
21 デッキ・歩道橋
 10
-325.182544
 20
259.567531
  0
VERTEX
  8
21 デッキ・歩道橋
 10
-319.101223
 20
255.906405
  0
VERTEX
  8
21 デッキ・歩道橋
 10
-315.844210
 20
254.365749
  0
VERTEX
  8
21 デッキ・歩道橋
 10
-311.998081
 20
253.002861
  0
VERTEX
  8
21 デッキ・歩道橋
 10
-308.149885
 20
251.017784
  0
VERTEX
  8
21 デッキ・歩道橋
 10
-298.599331
 20
244.159245
  0
VERTEX
  8
21 デッキ・歩道橋
 10
-298.379877
 20
244.002147
  0
VERTEX
  8
21 デッキ・歩道橋
 10
-297.051095
 20
245.928657
  0
VERTEX
  8
21 デッキ・歩道橋
 10
-297.486558
 20
246.229071
  0
SEQEND
  0
POLYLINE
  8
21 デッキ・歩道橋
 40
0.035278
 41
0.035278
 62
37
 66
1
 10
0
 20
0
 30
0
 70
1
  0
VERTEX
  8
21 デッキ・歩道橋
 10
-343.086129
 20
198.860088
  0
VERTEX
  8
21 デッキ・歩道橋
 10
-340.149511
 20
197.109279
  0
VERTEX
  8
21 デッキ・歩道橋
 10
-339.878725
 20
197.564035
  0
VERTEX
  8
21 デッキ・歩道橋
 10
-342.808453
 20
199.310020
  0
VERTEX
  8
21 デッキ・歩道橋
 10
-342.082222
 20
200.490317
  0
VERTEX
  8
21 デッキ・歩道橋
 10
-342.532843
 20
200.767994
  0
VERTEX
  8
21 デッキ・歩道橋
 10
-343.943963
 20
198.474924
  0
VERTEX
  8
21 デッキ・歩道橋
 10
-343.493342
 20
198.197247
  0
SEQEND
  0
POLYLINE
  8
21 デッキ・歩道橋
 40
0.035278
 41
0.035278
 62
37
 66
1
 10
0
 20
0
 30
0
 70
1
  0
VERTEX
  8
21 デッキ・歩道橋
 10
-414.985725
 20
259.046285
  0
VERTEX
  8
21 デッキ・歩道橋
 10
-414.743189
 20
257.285141
  0
VERTEX
  8
21 デッキ・歩道橋
 10
-414.393854
 20
257.333373
  0
VERTEX
  8
21 デッキ・歩道橋
 10
-414.621232
 20
258.982895
  0
VERTEX
  8
21 デッキ・歩道橋
 10
-414.000421
 20
260.167326
  0
VERTEX
  8
21 デッキ・歩道橋
 10
-414.312894
 20
260.330625
  0
VERTEX
  8
21 デッキ・歩道橋
 10
-414.719073
 20
259.555818
  0
VERTEX
  8
21 デッキ・歩道橋
 10
-418.813939
 20
262.808353
  0
VERTEX
  8
21 デッキ・歩道橋
 10
-423.620911
 20
265.742215
  0
VERTEX
  8
21 デッキ・歩道橋
 10
-426.237478
 20
269.056418
  0
VERTEX
  8
21 デッキ・歩道橋
 10
-426.653648
 20
268.728442
  0
VERTEX
  8
21 デッキ・歩道橋
 10
-423.977481
 20
265.339825
  0
VERTEX
  8
21 デッキ・歩道橋
 10
-419.115731
 20
262.374957
  0
VERTEX
  8
21 デッキ・歩道橋
 10
-414.969188
 20
259.077980
  0
SEQEND
  0
POLYLINE
  8
21 デッキ・歩道橋
 40
0.035278
 41
0.035278
 62
37
 66
1
 10
0
 20
0
 30
0
  0
VERTEX
  8
21 デッキ・歩道橋
 10
-433.837751
 20
307.860495
  0
VERTEX
  8
21 デッキ・歩道橋
 10
-434.355552
 20
303.357727
  0
SEQEND
  0
POLYLINE
  8
21 デッキ・歩道橋
 40
0.035278
 41
0.035278
 62
37
 66
1
 10
0
 20
0
 30
0
  0
VERTEX
  8
21 デッキ・歩道橋
 10
-434.355552
 20
294.102075
  0
VERTEX
  8
21 デッキ・歩道橋
 10
-432.776655
 20
307.860495
  0
SEQEND
  0
POLYLINE
  8
23 園路・他敷地道
  6
AIGENLINE001
 40
0.105834
 41
0.105834
 66
1
 10
0
 20
0
 30
0
 70
128
  0
VERTEX
  8
23 園路・他敷地道
 10
-425.265266
 20
298.967614
  0
VERTEX
  8
23 園路・他敷地道
 10
-391.617840
 20
306.648158
  0
VERTEX
  8
23 園路・他敷地道
 10
-388.928926
 20
307.081554
  0
VERTEX
  8
23 園路・他敷地道
 10
-386.066722
 20
307.168371
  0
VERTEX
  8
23 園路・他敷地道
 10
-382.915818
 20
306.818347
  0
VERTEX
  8
23 園路・他敷地道
 10
-374.212074
 20
305.146776
  0
VERTEX
  8
23 園路・他敷地道
 10
-366.714465
 20
303.735656
  0
VERTEX
  8
23 園路・他敷地道
 10
-366.583896
 20
304.428814
  0
VERTEX
  8
23 園路・他敷地道
 10
-374.080126
 20
305.839934
  0
VERTEX
  8
23 園路・他敷地道
 10
-382.810742
 20
307.514950
  0
VERTEX
  8
23 園路・他敷地道
 10
-386.012978
 20
307.872553
  0
VERTEX
  8
23 園路・他敷地道
 10
-386.038128
 20
307.874965
  0
VERTEX
  8
23 園路・他敷地道
 10
-386.062588
 20
307.874965
  0
VERTEX
  8
23 園路・他敷地道
 10
-388.996105
 20
307.785736
  0
VERTEX
  8
23 園路・他敷地道
 10
-391.752544
 20
307.340627
  0
VERTEX
  8
23 園路・他敷地道
 10
-425.948088
 20
299.535369
  0
SEQEND
  0
POLYLINE
  8
23 園路・他敷地道
  6
AIGENLINE001
 40
0.105834
 41
0.105834
 66
1
 10
0
 20
0
 30
0
 70
128
  0
VERTEX
  8
23 園路・他敷地道
 10
-296.470593
 20
240.654872
  0
VERTEX
  8
23 園路・他敷地道
 10
-291.435899
 20
247.349768
  0
VERTEX
  8
23 園路・他敷地道
 10
-291.228847
 20
247.625033
  0
VERTEX
  8
23 園路・他敷地道
 10
-284.247662
 20
242.618588
  0
SEQEND
  0
POLYLINE
  8
23 園路・他敷地道
  6
AIGENLINE001
 40
0.105834
 41
0.105834
 66
1
 10
0
 20
0
 30
0
 70
128
  0
VERTEX
  8
23 園路・他敷地道
 10
-295.869076
 20
240.280732
  0
VERTEX
  8
23 園路・他敷地道
 10
-295.159037
 20
241.224694
  0
VERTEX
  8
23 園路・他敷地道
 10
-284.247662
 20
233.482827
  0
SEQEND
  0
POLYLINE
  8
23 園路・他敷地道
  6
AIGENLINE001
 40
0.105834
 41
0.105834
 66
1
 10
0
 20
0
 30
0
 70
128
  0
VERTEX
  8
23 園路・他敷地道
 10
-284.247662
 20
241.750419
  0
VERTEX
  8
23 園路・他敷地道
 10
-291.079674
 20
246.650064
  0
VERTEX
  8
23 園路・他敷地道
 10
-291.746304
 20
245.763291
  0
VERTEX
  8
23 園路・他敷地道
 10
-284.247662
 20
240.487783
  0
SEQEND
  0
POLYLINE
  8
23 園路・他敷地道
  6
AIGENLINE001
 40
0.105834
 41
0.105834
 66
1
 10
0
 20
0
 30
0
 70
128
  0
VERTEX
  8
23 園路・他敷地道
 10
-284.247662
 20
239.840790
  0
VERTEX
  8
23 園路・他敷地道
 10
-292.064633
 20
245.340231
  0
VERTEX
  8
23 園路・他敷地道
 10
-294.734599
 20
241.789004
  0
VERTEX
  8
23 園路・他敷地道
 10
-287.336554
 20
236.539335
  0
VERTEX
  8
23 園路・他敷地道
 10
-284.247662
 20
235.971924
  0
SEQEND
  0
POLYLINE
  8
23 園路・他敷地道
  6
AIGENLINE001
 40
0.105834
 41
0.105834
 66
1
 10
0
 20
0
 30
0
 70
128
  0
VERTEX
  8
23 園路・他敷地道
 10
-284.247662
 20
235.254306
  0
VERTEX
  8
23 園路・他敷地道
 10
-285.972977
 20
235.571257
  0
VERTEX
  8
23 園路・他敷地道
 10
-284.247662
 20
234.347206
  0
SEQEND
  0
POLYLINE
  8
23 園路・他敷地道
  6
AIGENLINE001
 40
0.105834
 41
0.105834
 66
1
 10
0
 20
0
 30
0
 70
128
  0
VERTEX
  8
23 園路・他敷地道
 10
-340.933620
 20
201.935199
  0
VERTEX
  8
23 園路・他敷地道
 10
-347.504837
 20
205.846785
  0
VERTEX
  8
23 園路・他敷地道
 10
-348.046409
 20
204.937275
  0
VERTEX
  8
23 園路・他敷地道
 10
-341.438674
 20
201.004329
  0
SEQEND
  0
POLYLINE
  8
23 園路・他敷地道
  6
AIGENLINE001
 40
0.105834
 41
0.105834
 66
1
 10
0
 20
0
 30
0
 70
128
  0
VERTEX
  8
23 園路・他敷地道
 10
-371.119048
 20
194.634307
  0
VERTEX
  8
23 園路・他敷地道
 10
-369.416471
 20
195.315062
  0
VERTEX
  8
23 園路・他敷地道
 10
-364.661176
 20
202.313473
  0
VERTEX
  8
23 園路・他敷地道
 10
-363.893259
 20
204.190373
  0
VERTEX
  8
23 園路・他敷地道
 10
-362.040820
 20
205.453353
  0
VERTEX
  8
23 園路・他敷地道
 10
-359.935853
 20
206.768699
  0
VERTEX
  8
23 園路・他敷地道
 10
-357.777487
 20
207.976557
  0
VERTEX
  8
23 園路・他敷地道
 10
-356.429413
 20
208.397550
  0
VERTEX
  8
23 園路・他敷地道
 10
-353.924812
 20
208.743785
  0
VERTEX
  8
23 園路・他敷地道
 10
-349.972229
 20
208.743785
  0
VERTEX
  8
23 園路・他敷地道
 10
-346.986002
 20
213.050526
  0
VERTEX
  8
23 園路・他敷地道
 10
-345.904924
 20
212.350478
  0
VERTEX
  8
23 園路・他敷地道
 10
-345.764363
 20
211.321766
  0
VERTEX
  8
23 園路・他敷地道
 10
-346.645624
 20
209.944408
  0
VERTEX
  8
23 園路・他敷地道
 10
-346.683521
 20
209.885152
  0
VERTEX
  8
23 園路・他敷地道
 10
-346.802033
 20
207.592771
  0
VERTEX
  8
23 園路・他敷地道
 10
-347.526885
 20
206.476553
  0
VERTEX
  8
23 園路・他敷地道
 10
-347.083154
 20
206.188541
  0
VERTEX
  8
23 園路・他敷地道
 10
-346.515399
 20
207.062223
  0
VERTEX
  8
23 園路・他敷地道
 10
-345.709931
 20
207.011235
  0
VERTEX
  8
23 園路・他敷地道
 10
-344.860365
 20
206.728735
  0
VERTEX
  8
23 園路・他敷地道
 10
-344.071777
 20
206.545455
  0
VERTEX
  8
23 園路・他敷地道
 10
-343.968079
 20
206.521339
  0
VERTEX
  8
23 園路・他敷地道
 10
-343.240471
 20
206.957491
  0
VERTEX
  8
23 園路・他敷地道
 10
-341.859668
 20
208.903293
  0
VERTEX
  8
23 園路・他敷地道
 10
-341.933393
 20
209.861036
  0
VERTEX
  8
23 園路・他敷地道
 10
-342.505627
 20
210.432925
  0
VERTEX
  8
23 園路・他敷地道
 10
-343.079928
 20
210.361267
  0
VERTEX
  8
23 園路・他敷地道
 10
-343.919848
 20
210.413633
  0
VERTEX
  8
23 園路・他敷地道
 10
-345.235193
 20
211.361040
  0
VERTEX
  8
23 園路・他敷地道
 10
-345.412961
 20
212.662605
  0
VERTEX
  8
23 園路・他敷地道
 10
-346.684210
 20
213.485299
  0
VERTEX
  8
23 園路・他敷地道
 10
-345.742315
 20
214.844054
  0
SEQEND
  0
POLYLINE
  8
23 園路・他敷地道
  6
AIGENLINE001
 40
0.105834
 41
0.105834
 66
1
 10
0
 20
0
 30
0
 70
128
  0
VERTEX
  8
23 園路・他敷地道
 10
-364.886486
 20
204.267544
  0
VERTEX
  8
23 園路・他敷地道
 10
-364.682191
 20
204.125605
  0
VERTEX
  8
23 園路・他敷地道
 10
-365.285775
 20
202.649028
  0
VERTEX
  8
23 園路・他敷地道
 10
-369.878806
 20
195.889708
  0
VERTEX
  8
23 園路・他敷地道
 10
-370.471021
 20
195.653373
  0
SEQEND
  0
POLYLINE
  8
23 園路・他敷地道
  6
AIGENLINE001
 40
0.105834
 41
0.105834
 66
1
 10
0
 20
0
 30
0
 70
128
  0
VERTEX
  8
23 園路・他敷地道
 10
-346.379661
 20
215.162382
  0
VERTEX
  8
23 園路・他敷地道
 10
-347.276425
 20
213.869085
  0
VERTEX
  8
23 園路・他敷地道
 10
-353.745322
 20
218.057659
  0
VERTEX
  8
23 園路・他敷地道
 10
-354.810552
 20
218.124494
  0
VERTEX
  8
23 園路・他敷地道
 10
-354.862918
 20
218.105890
  0
VERTEX
  8
23 園路・他敷地道
 10
-355.587081
 20
217.841995
  0
VERTEX
  8
23 園路・他敷地道
 10
-356.927921
 20
215.952348
  0
VERTEX
  8
23 園路・他敷地道
 10
-358.700434
 20
213.116672
  0
VERTEX
  8
23 園路・他敷地道
 10
-359.509692
 20
211.686259
  0
VERTEX
  8
23 園路・他敷地道
 10
-359.452503
 20
210.772270
  0
VERTEX
  8
23 園路・他敷地道
 10
-360.561142
 20
209.442110
  0
VERTEX
  8
23 園路・他敷地道
 10
-362.387743
 20
207.144561
  0
VERTEX
  8
23 園路・他敷地道
 10
-363.537034
 20
205.287298
  0
VERTEX
  8
23 園路・他敷地道
 10
-364.022106
 20
204.955878
  0
VERTEX
  8
23 園路・他敷地道
 10
-364.420362
 20
205.232177
  0
SEQEND
  0
POLYLINE
  8
23 園路・他敷地道
  6
AIGENLINE001
 40
0.105834
 41
0.105834
 66
1
 10
0
 20
0
 30
0
 70
129
  0
VERTEX
  8
23 園路・他敷地道
 10
-358.246023
 20
212.846575
  0
VERTEX
  8
23 園路・他敷地道
 10
-356.813543
 20
215.137578
  0
VERTEX
  8
23 園路・他敷地道
 10
-355.365905
 20
213.940055
  0
VERTEX
  8
23 園路・他敷地道
 10
-355.470637
 20
213.556269
  0
VERTEX
  8
23 園路・他敷地道
 10
-356.031157
 20
213.200388
  0
VERTEX
  8
23 園路・他敷地道
 10
-358.036215
 20
211.844045
  0
VERTEX
  8
23 園路・他敷地道
 10
-358.948138
 20
211.180516
  0
VERTEX
  8
23 園路・他敷地道
 10
-358.971909
 20
211.562235
  0
SEQEND
  0
POLYLINE
  8
23 園路・他敷地道
  6
AIGENLINE001
 40
0.105834
 41
0.105834
 66
1
 10
0
 20
0
 30
0
 70
129
  0
VERTEX
  8
23 園路・他敷地道
 10
-358.058264
 20
208.627684
  0
VERTEX
  8
23 園路・他敷地道
 10
-360.295868
 20
207.375728
  0
VERTEX
  8
23 園路・他敷地道
 10
-362.426328
 20
206.043846
  0
VERTEX
  8
23 園路・他敷地道
 10
-362.462157
 20
206.019041
  0
VERTEX
  8
23 園路・他敷地道
 10
-361.955725
 20
206.840357
  0
VERTEX
  8
23 園路・他敷地道
 10
-360.150484
 20
209.108278
  0
VERTEX
  8
23 園路・他敷地道
 10
-359.137619
 20
210.324060
  0
VERTEX
  8
23 園路・他敷地道
 10
-357.177692
 20
208.903293
  0
SEQEND
  0
POLYLINE
  8
23 園路・他敷地道
  6
AIGENLINE001
 40
0.105834
 41
0.105834
 66
1
 10
0
 20
0
 30
0
 70
129
  0
VERTEX
  8
23 園路・他敷地道
 10
-354.368199
 20
209.809359
  0
VERTEX
  8
23 園路・他敷地道
 10
-354.788159
 20
209.336689
  0
VERTEX
  8
23 園路・他敷地道
 10
-355.753825
 20
209.203708
  0
VERTEX
  8
23 園路・他敷地道
 10
-356.350519
 20
209.640549
  0
VERTEX
  8
23 園路・他敷地道
 10
-356.710879
 20
210.104950
  0
VERTEX
  8
23 園路・他敷地道
 10
-356.850750
 20
210.523877
  0
VERTEX
  8
23 園路・他敷地道
 10
-356.761177
 20
210.973120
  0
VERTEX
  8
23 園路・他敷地道
 10
-356.372224
 20
211.410650
  0
VERTEX
  8
23 園路・他敷地道
 10
-355.886118
 20
211.654220
  0
VERTEX
  8
23 園路・他敷地道
 10
-355.446865
 20
211.654220
  0
VERTEX
  8
23 園路・他敷地道
 10
-354.743372
 20
211.502979
  0
VERTEX
  8
23 園路・他敷地道
 10
-354.368199
 20
211.033754
  0
VERTEX
  8
23 園路・他敷地道
 10
-354.221437
 20
210.446017
  0
SEQEND
  0
POLYLINE
  8
23 園路・他敷地道
  6
AIGENLINE001
 40
0.105834
 41
0.105834
 66
1
 10
0
 20
0
 30
0
 70
129
  0
VERTEX
  8
23 園路・他敷地道
 10
-350.341546
 20
209.449345
  0
VERTEX
  8
23 園路・他敷地道
 10
-353.973389
 20
209.449345
  0
VERTEX
  8
23 園路・他敷地道
 10
-353.981657
 20
209.447622
  0
VERTEX
  8
23 園路・他敷地道
 10
-353.882782
 20
209.558555
  0
VERTEX
  8
23 園路・他敷地道
 10
-353.677109
 20
210.450840
  0
VERTEX
  8
23 園路・他敷地道
 10
-353.882782
 20
211.274223
  0
VERTEX
  8
23 園路・他敷地道
 10
-354.448126
 20
211.981161
  0
VERTEX
  8
23 園路・他敷地道
 10
-355.390365
 20
212.183390
  0
VERTEX
  8
23 園路・他敷地道
 10
-355.418960
 20
212.183390
  0
VERTEX
  8
23 園路・他敷地道
 10
-356.010142
 20
212.183390
  0
VERTEX
  8
23 園路・他敷地道
 10
-356.699854
 20
211.837844
  0
VERTEX
  8
23 園路・他敷地道
 10
-357.251762
 20
211.217723
  0
VERTEX
  8
23 園路・他敷地道
 10
-357.397146
 20
210.490114
  0
VERTEX
  8
23 園路・他敷地道
 10
-357.184238
 20
209.851390
  0
VERTEX
  8
23 園路・他敷地道
 10
-356.721903
 20
209.257452
  0
VERTEX
  8
23 園路・他敷地道
 10
-356.506928
 20
209.099665
  0
VERTEX
  8
23 園路・他敷地道
 10
-356.540690
 20
209.094842
  0
VERTEX
  8
23 園路・他敷地道
 10
-358.731440
 20
210.684075
  0
VERTEX
  8
23 園路・他敷地道
 10
-357.732700
 20
211.410650
  0
VERTEX
  8
23 園路・他敷地道
 10
-355.741078
 20
212.757691
  0
VERTEX
  8
23 園路・他敷地道
 10
-355.100631
 20
213.165248
  0
VERTEX
  8
23 園路・他敷地道
 10
-355.014158
 20
213.220025
  0
VERTEX
  8
23 園路・他敷地道
 10
-354.765766
 20
214.130225
  0
VERTEX
  8
23 園路・他敷地道
 10
-356.531044
 20
215.590266
  0
VERTEX
  8
23 園路・他敷地道
 10
-356.488324
 20
215.658479
  0
VERTEX
  8
23 園路・他敷地道
 10
-355.250838
 20
217.401020
  0
VERTEX
  8
23 園路・他敷地道
 10
-354.733381
 20
217.589123
  0
VERTEX
  8
23 園路・他敷地道
 10
-353.916889
 20
217.538135
  0
VERTEX
  8
23 園路・他敷地道
 10
-347.578562
 20
213.434312
  0
SEQEND
  0
POLYLINE
  8
23 園路・他敷地道
  6
AIGENLINE001
 40
0.105834
 41
0.105834
 66
1
 10
0
 20
0
 30
0
 70
129
  0
VERTEX
  8
23 園路・他敷地道
 10
-344.105195
 20
209.894798
  0
VERTEX
  8
23 園路・他敷地道
 10
-343.063391
 20
209.830030
  0
VERTEX
  8
23 園路・他敷地道
 10
-342.696831
 20
209.875506
  0
VERTEX
  8
23 園路・他敷地道
 10
-342.446026
 20
209.625735
  0
VERTEX
  8
23 園路・他敷地道
 10
-342.402618
 20
209.053501
  0
VERTEX
  8
23 園路・他敷地道
 10
-343.607720
 20
207.354369
  0
VERTEX
  8
23 園路・他敷地道
 10
-344.056963
 20
207.084961
  0
VERTEX
  8
23 園路・他敷地道
 10
-344.717048
 20
207.237235
  0
VERTEX
  8
23 園路・他敷地道
 10
-345.574882
 20
207.524558
  0
VERTEX
  8
23 園路・他敷地道
 10
-345.607955
 20
207.535582
  0
VERTEX
  8
23 園路・他敷地道
 10
-346.272863
 20
207.576923
  0
VERTEX
  8
23 園路・他敷地道
 10
-346.162274
 20
209.717719
  0
VERTEX
  8
23 園路・他敷地道
 10
-345.436044
 20
210.853230
  0
SEQEND
  0
POLYLINE
  8
23 園路・他敷地道
  6
AIGENLINE001
 40
0.105834
 41
0.105834
 66
1
 10
0
 20
0
 30
0
 70
128
  0
VERTEX
  8
23 園路・他敷地道
 10
-432.477963
 20
165.512732
  0
VERTEX
  8
23 園路・他敷地道
 10
-434.355552
 20
164.366886
  0
SEQEND
  0
POLYLINE
  8
23 園路・他敷地道
  6
AIGENLINE001
 40
0.105834
 41
0.105834
 66
1
 10
0
 20
0
 30
0
 70
128
  0
VERTEX
  8
23 園路・他敷地道
 10
-432.699829
 20
165.914432
  0
VERTEX
  8
23 園路・他敷地道
 10
-434.355552
 20
164.903979
  0
SEQEND
  0
POLYLINE
  8
25 分離帯等
 40
0.035278
 41
0.035278
 62
252
 66
1
 10
0
 20
0
 30
0
 70
1
  0
VERTEX
  8
25 分離帯等
 10
-360.153929
 20
301.157331
 42
0.391126
  0
VERTEX
  8
25 分離帯等
 10
-360.226621
 20
301.140105
  0
VERTEX
  8
25 分離帯等
 10
-367.635001
 20
289.145585
 42
0.395103
  0
VERTEX
  8
25 分離帯等
 10
-367.617775
 20
289.072548
 42
0.390949
  0
VERTEX
  8
25 分離帯等
 10
-367.545083
 20
289.089774
  0
VERTEX
  8
25 分離帯等
 10
-360.136703
 20
301.084294
 42
0.393267
  0
SEQEND
  0
HATCH
  8
25 分離帯等
 62
255
 10
0.0
 20
0.0
 30
0.0
 210
0.0
 220
0.0
 230
1.0
  2
SOLID
 70
     1
 71
     1
 91
     1
 92
     2
 72
     1
 73
     1
 93
     6
 10
-360.153929
 20
301.157331
 42
0.391126
 10
-360.226621
 20
301.140105
 42
0.000000
 10
-367.635001
 20
289.145585
 42
0.395103
 10
-367.617775
 20
289.072548
 42
0.390949
 10
-367.545083
 20
289.089774
 42
0.000000
 10
-360.136703
 20
301.084294
 42
0.393267
 97
     0
 75
     0
 76
     1
 98
     1
 10
0.0
 20
0.0
  0
POLYLINE
  8
25 分離帯等
 40
0.035278
 41
0.035278
 62
252
 66
1
 10
0
 20
0
 30
0
 70
1
  0
VERTEX
  8
25 分離帯等
 10
-374.434284
 20
278.460898
 42
0.393322
  0
VERTEX
  8
25 分離帯等
 10
-374.507321
 20
278.443673
  0
VERTEX
  8
25 分離帯等
 10
-377.277884
 20
273.946417
 42
0.392903
  0
VERTEX
  8
25 分離帯等
 10
-377.260658
 20
273.873380
 42
0.390914
  0
VERTEX
  8
25 分離帯等
 10
-377.187966
 20
273.890606
  0
VERTEX
  8
25 分離帯等
 10
-374.417058
 20
278.388207
 42
0.394518
  0
SEQEND
  0
HATCH
  8
25 分離帯等
 62
255
 10
0.0
 20
0.0
 30
0.0
 210
0.0
 220
0.0
 230
1.0
  2
SOLID
 70
     1
 71
     1
 91
     1
 92
     2
 72
     1
 73
     1
 93
     6
 10
-374.434284
 20
278.460898
 42
0.393322
 10
-374.507321
 20
278.443673
 42
0.000000
 10
-377.277884
 20
273.946417
 42
0.392903
 10
-377.260658
 20
273.873380
 42
0.390914
 10
-377.187966
 20
273.890606
 42
0.000000
 10
-374.417058
 20
278.388207
 42
0.394518
 97
     0
 75
     0
 76
     1
 98
     1
 10
0.0
 20
0.0
  0
POLYLINE
  8
25 分離帯等
 40
0.035278
 41
0.035278
 62
252
 66
1
 10
0
 20
0
 30
0
 70
1
  0
VERTEX
  8
25 分離帯等
 10
-371.192429
 20
283.824257
  0
VERTEX
  8
25 分離帯等
 10
-373.028676
 20
280.843542
 42
0.398282
  0
VERTEX
  8
25 分離帯等
 10
-373.011451
 20
280.771194
 42
0.395544
  0
VERTEX
  8
25 分離帯等
 10
-372.938414
 20
280.788420
  0
VERTEX
  8
25 分離帯等
 10
-371.102511
 20
283.768446
 42
0.394696
  0
VERTEX
  8
25 分離帯等
 10
-371.119737
 20
283.841483
 42
0.390949
  0
SEQEND
  0
HATCH
  8
25 分離帯等
 62
255
 10
0.0
 20
0.0
 30
0.0
 210
0.0
 220
0.0
 230
1.0
  2
SOLID
 70
     1
 71
     1
 91
     1
 92
     2
 72
     1
 73
     1
 93
     6
 10
-371.192429
 20
283.824257
 42
0.000000
 10
-373.028676
 20
280.843542
 42
0.398282
 10
-373.011451
 20
280.771194
 42
0.395544
 10
-372.938414
 20
280.788420
 42
0.000000
 10
-371.102511
 20
283.768446
 42
0.394696
 10
-371.119737
 20
283.841483
 42
0.390949
 97
     0
 75
     0
 76
     1
 98
     1
 10
0.0
 20
0.0
  0
POLYLINE
  8
25 分離帯等
 40
0.035278
 41
0.035278
 62
252
 66
1
 10
0
 20
0
 30
0
 70
1
  0
VERTEX
  8
25 分離帯等
 10
-423.668109
 20
295.113906
 42
0.391552
  0
VERTEX
  8
25 分離帯等
 10
-423.651917
 20
295.040869
  0
VERTEX
  8
25 分離帯等
 10
-404.601797
 20
282.958154
 42
0.395775
  0
VERTEX
  8
25 分離帯等
 10
-404.528761
 20
282.974691
 42
0.396580
  0
VERTEX
  8
25 分離帯等
 10
-404.544953
 20
283.047728
  0
VERTEX
  8
25 分離帯等
 10
-423.595073
 20
295.130443
 42
0.388292
  0
SEQEND
  0
HATCH
  8
25 分離帯等
 62
255
 10
0.0
 20
0.0
 30
0.0
 210
0.0
 220
0.0
 230
1.0
  2
SOLID
 70
     1
 71
     1
 91
     1
 92
     2
 72
     1
 73
     1
 93
     6
 10
-423.668109
 20
295.113906
 42
0.391552
 10
-423.651917
 20
295.040869
 42
0.000000
 10
-404.601797
 20
282.958154
 42
0.395775
 10
-404.528761
 20
282.974691
 42
0.396580
 10
-404.544953
 20
283.047728
 42
0.000000
 10
-423.595073
 20
295.130443
 42
0.388292
 97
     0
 75
     0
 76
     1
 98
     1
 10
0.0
 20
0.0
  0
POLYLINE
  8
25 分離帯等
 40
0.035278
 41
0.035278
 62
252
 66
1
 10
0
 20
0
 30
0
 70
1
  0
VERTEX
  8
25 分離帯等
 10
-356.799074
 20
306.005988
 42
0.392756
  0
VERTEX
  8
25 分離帯等
 10
-356.726726
 20
306.023214
  0
VERTEX
  8
25 分離帯等
 10
-355.591905
 20
307.860495
  0
VERTEX
  8
25 分離帯等
 10
-355.715929
 20
307.860495
  0
VERTEX
  8
25 分離帯等
 10
-356.816299
 20
306.079025
 42
0.395215
  0
SEQEND
  0
HATCH
  8
25 分離帯等
 62
255
 10
0.0
 20
0.0
 30
0.0
 210
0.0
 220
0.0
 230
1.0
  2
SOLID
 70
     1
 71
     1
 91
     1
 92
     2
 72
     1
 73
     1
 93
     5
 10
-356.799074
 20
306.005988
 42
0.392756
 10
-356.726726
 20
306.023214
 42
0.000000
 10
-355.591905
 20
307.860495
 42
0.000000
 10
-355.715929
 20
307.860495
 42
0.000000
 10
-356.816299
 20
306.079025
 42
0.395215
 97
     0
 75
     0
 76
     1
 98
     1
 10
0.0
 20
0.0
  0
POLYLINE
  8
25 分離帯等
 40
0.035278
 41
0.035278
 62
252
 66
1
 10
0
 20
0
 30
0
 70
1
  0
VERTEX
  8
25 分離帯等
 10
-357.164601
 20
175.828101
  0
VERTEX
  8
25 分離帯等
 10
-362.202396
 20
171.815229
 42
0.389528
  0
VERTEX
  8
25 分離帯等
 10
-362.210664
 20
171.740125
 42
0.392740
  0
VERTEX
  8
25 分離帯等
 10
-362.136594
 20
171.731857
  0
VERTEX
  8
25 分離帯等
 10
-357.098799
 20
175.745419
 42
0.395739
  0
VERTEX
  8
25 分離帯等
 10
-357.090186
 20
175.819833
 42
0.395201
  0
SEQEND
  0
HATCH
  8
25 分離帯等
 62
255
 10
0.0
 20
0.0
 30
0.0
 210
0.0
 220
0.0
 230
1.0
  2
SOLID
 70
     1
 71
     1
 91
     1
 92
     2
 72
     1
 73
     1
 93
     6
 10
-357.164601
 20
175.828101
 42
0.000000
 10
-362.202396
 20
171.815229
 42
0.389528
 10
-362.210664
 20
171.740125
 42
0.392740
 10
-362.136594
 20
171.731857
 42
0.000000
 10
-357.098799
 20
175.745419
 42
0.395739
 10
-357.090186
 20
175.819833
 42
0.395201
 97
     0
 75
     0
 76
     1
 98
     1
 10
0.0
 20
0.0
  0
POLYLINE
  8
26 道路
 40
0.070556
 41
0.070556
 62
252
 66
1
 10
0
 20
0
 30
0
  0
VERTEX
  8
26 道路
 10
-284.247662
 20
235.254306
  0
VERTEX
  8
26 道路
 10
-285.972977
 20
235.571257
  0
VERTEX
  8
26 道路
 10
-284.247662
 20
234.347206
  0
SEQEND
  0
POLYLINE
  8
26 道路
 40
0.070556
 41
0.070556
 62
252
 66
1
 10
0
 20
0
 30
0
 70
1
  0
VERTEX
  8
26 道路
 10
-371.650974
 20
288.802451
  0
VERTEX
  8
26 道路
 10
-369.876394
 20
287.863312
  0
VERTEX
  8
26 道路
 10
-373.494801
 20
282.158887
  0
VERTEX
  8
26 道路
 10
-374.946573
 20
282.998807
  0
SEQEND
  0
POLYLINE
  8
26 道路
 40
0.070556
 41
0.070556
 62
252
 66
1
 10
0
 20
0
 30
0
 70
1
  0
VERTEX
  8
26 道路
 10
-375.502615
 20
283.319203
  0
VERTEX
  8
26 道路
 10
-380.050859
 20
285.949550
  0
VERTEX
  8
26 道路
 10
-378.396513
 20
289.417060
  0
VERTEX
  8
26 道路
 10
-384.350709
 20
293.076464
  0
VERTEX
  8
26 道路
 10
-383.818439
 20
293.833700
  0
VERTEX
  8
26 道路
 10
-382.348407
 20
294.465535
  0
VERTEX
  8
26 道路
 10
-372.218729
 20
289.102865
  0
SEQEND
  0
POLYLINE
  8
26 道路
 40
0.070556
 41
0.070556
 62
252
 66
1
 10
0
 20
0
 30
0
 70
1
  0
VERTEX
  8
26 道路
 10
-369.358937
 20
284.050946
  0
VERTEX
  8
26 道路
 10
-368.216881
 20
285.852053
  0
VERTEX
  8
26 道路
 10
-362.283011
 20
282.213320
  0
VERTEX
  8
26 道路
 10
-363.352376
 20
280.372250
  0
SEQEND
  0
POLYLINE
  8
26 道路
 40
0.070556
 41
0.070556
 62
252
 66
1
 10
0
 20
0
 30
0
 70
1
  0
VERTEX
  8
26 道路
 10
-363.656235
 20
279.849281
  0
VERTEX
  8
26 道路
 10
-365.858354
 20
276.057585
  0
VERTEX
  8
26 道路
 10
-368.776713
 20
277.787034
  0
VERTEX
  8
26 道路
 10
-366.469518
 20
281.571839
  0
SEQEND
  0
POLYLINE
  8
26 道路
 40
0.070556
 41
0.070556
 62
252
 66
1
 10
0
 20
0
 30
0
 70
1
  0
VERTEX
  8
26 道路
 10
-366.758563
 20
281.748229
  0
VERTEX
  8
26 道路
 10
-369.068514
 20
277.959978
  0
VERTEX
  8
26 道路
 10
-372.086437
 20
279.749372
  0
VERTEX
  8
26 道路
 10
-369.683123
 20
283.539690
  0
SEQEND
  0
POLYLINE
  8
26 道路
 40
0.070556
 41
0.070556
 62
252
 66
1
 10
0
 20
0
 30
0
 70
1
  0
VERTEX
  8
26 道路
 10
-372.996981
 20
278.316204
  0
VERTEX
  8
26 道路
 10
-364.538185
 20
273.302525
  0
VERTEX
  8
26 道路
 10
-365.543470
 20
271.606493
  0
VERTEX
  8
26 道路
 10
-374.099763
 20
276.579865
  0
SEQEND
  0
POLYLINE
  8
26 道路
 40
0.070556
 41
0.070556
 62
252
 66
1
 10
0
 20
0
 30
0
 70
1
  0
VERTEX
  8
26 道路
 10
-336.354715
 20
253.472085
  0
VERTEX
  8
26 道路
 10
-339.625509
 20
248.368489
  0
VERTEX
  8
26 道路
 10
-348.119445
 20
253.575439
  0
VERTEX
  8
26 道路
 10
-345.102212
 20
258.557078
  0
SEQEND
  0
POLYLINE
  8
26 道路
 40
0.070556
 41
0.070556
 62
252
 66
1
 10
0
 20
0
 30
0
 70
1
  0
VERTEX
  8
26 道路
 10
-344.579932
 20
259.420769
  0
VERTEX
  8
26 道路
 10
-343.665598
 20
260.928697
  0
VERTEX
  8
26 道路
 10
-334.903976
 20
255.735527
  0
VERTEX
  8
26 道路
 10
-335.809697
 20
254.322340
  0
SEQEND
  0
POLYLINE
  8
26 道路
 40
0.070556
 41
0.070556
 62
252
 66
1
 10
0
 20
0
 30
0
 70
1
  0
VERTEX
  8
26 道路
 10
-355.846154
 20
243.592867
  0
VERTEX
  8
26 道路
 10
-358.292877
 20
239.553812
  0
VERTEX
  8
26 道路
 10
-366.872596
 20
244.939219
  0
VERTEX
  8
26 道路
 10
-364.430353
 20
248.963116
  0
SEQEND
  0
POLYLINE
  8
26 道路
 40
0.070556
 41
0.070556
 62
252
 66
1
 10
0
 20
0
 30
0
 70
1
  0
VERTEX
  8
26 道路
 10
-363.916686
 20
249.809237
  0
VERTEX
  8
26 道路
 10
-361.309421
 20
254.104609
  0
VERTEX
  8
26 道路
 10
-352.725223
 20
248.746074
  0
VERTEX
  8
26 道路
 10
-355.333521
 20
244.439677
  0
SEQEND
  0
POLYLINE
  8
26 道路
 40
0.070556
 41
0.070556
 62
252
 66
1
 10
0
 20
0
 30
0
  0
VERTEX
  8
26 道路
 10
-284.247662
 20
204.444967
  0
VERTEX
  8
26 道路
 10
-286.745027
 20
201.684395
  0
VERTEX
  8
26 道路
 10
-286.730558
 20
201.623761
  0
VERTEX
  8
26 道路
 10
-284.247662
 20
199.419919
  0
SEQEND
  0
POLYLINE
  8
26 道路
 40
0.070556
 41
0.070556
 62
252
 66
1
 10
0
 20
0
 30
0
  0
VERTEX
  8
26 道路
 10
-284.247662
 20
185.880609
  0
VERTEX
  8
26 道路
 10
-284.820929
 20
188.357993
  0
VERTEX
  8
26 道路
 10
-292.854254
 20
186.930336
  0
VERTEX
  8
26 道路
 10
-292.045685
 20
182.500604
  0
VERTEX
  8
26 道路
 10
-292.553839
 20
182.408620
  0
VERTEX
  8
26 道路
 10
-293.362753
 20
186.838696
  0
VERTEX
  8
26 道路
 10
-297.372525
 20
186.124868
  0
VERTEX
  8
26 道路
 10
-295.039836
 20
176.593606
  0
VERTEX
  8
26 道路
 10
-288.306699
 20
177.616806
  0
VERTEX
  8
26 道路
 10
-289.318874
 20
182.546769
  0
VERTEX
  8
26 道路
 10
-288.856540
 20
182.639787
  0
VERTEX
  8
26 道路
 10
-287.840230
 20
177.687776
  0
VERTEX
  8
26 道路
 10
-284.247662
 20
178.233482
  0
SEQEND
  0
POLYLINE
  8
26 道路
 40
0.070556
 41
0.070556
 62
252
 66
1
 10
0
 20
0
 30
0
 70
1
  0
VERTEX
  8
26 道路
 10
-353.882782
 20
211.274223
  0
VERTEX
  8
26 道路
 10
-354.448126
 20
211.981161
  0
VERTEX
  8
26 道路
 10
-355.390365
 20
212.183390
  0
VERTEX
  8
26 道路
 10
-355.418960
 20
212.183390
  0
VERTEX
  8
26 道路
 10
-356.010142
 20
212.183390
  0
VERTEX
  8
26 道路
 10
-356.699854
 20
211.837844
  0
VERTEX
  8
26 道路
 10
-357.251762
 20
211.217723
  0
VERTEX
  8
26 道路
 10
-357.397146
 20
210.490114
  0
VERTEX
  8
26 道路
 10
-357.184238
 20
209.851390
  0
VERTEX
  8
26 道路
 10
-356.721903
 20
209.257452
  0
VERTEX
  8
26 道路
 10
-356.506928
 20
209.099665
  0
VERTEX
  8
26 道路
 10
-356.540690
 20
209.094842
  0
VERTEX
  8
26 道路
 10
-358.731440
 20
210.684075
  0
VERTEX
  8
26 道路
 10
-357.732700
 20
211.410650
  0
VERTEX
  8
26 道路
 10
-355.741078
 20
212.757691
  0
VERTEX
  8
26 道路
 10
-355.100631
 20
213.165248
  0
VERTEX
  8
26 道路
 10
-355.014158
 20
213.220025
  0
VERTEX
  8
26 道路
 10
-354.765766
 20
214.130225
  0
VERTEX
  8
26 道路
 10
-356.531044
 20
215.590266
  0
VERTEX
  8
26 道路
 10
-356.488324
 20
215.658479
  0
VERTEX
  8
26 道路
 10
-355.250838
 20
217.401020
  0
VERTEX
  8
26 道路
 10
-354.733381
 20
217.589123
  0
VERTEX
  8
26 道路
 10
-353.916889
 20
217.538135
  0
VERTEX
  8
26 道路
 10
-347.578562
 20
213.434312
  0
VERTEX
  8
26 道路
 10
-350.341546
 20
209.449345
  0
VERTEX
  8
26 道路
 10
-353.973389
 20
209.449345
  0
VERTEX
  8
26 道路
 10
-353.981657
 20
209.447622
  0
VERTEX
  8
26 道路
 10
-353.882782
 20
209.558555
  0
VERTEX
  8
26 道路
 10
-353.677109
 20
210.450840
  0
SEQEND
  0
POLYLINE
  8
26 道路
 40
0.070556
 41
0.070556
 62
252
 66
1
 10
0
 20
0
 30
0
 70
1
  0
VERTEX
  8
26 道路
 10
-354.221437
 20
210.446017
  0
VERTEX
  8
26 道路
 10
-354.368199
 20
209.809359
  0
VERTEX
  8
26 道路
 10
-354.788159
 20
209.336689
  0
VERTEX
  8
26 道路
 10
-355.753825
 20
209.203708
  0
VERTEX
  8
26 道路
 10
-356.350519
 20
209.640549
  0
VERTEX
  8
26 道路
 10
-356.710879
 20
210.104950
  0
VERTEX
  8
26 道路
 10
-356.850750
 20
210.523877
  0
VERTEX
  8
26 道路
 10
-356.761177
 20
210.973120
  0
VERTEX
  8
26 道路
 10
-356.372224
 20
211.410650
  0
VERTEX
  8
26 道路
 10
-355.886118
 20
211.654220
  0
VERTEX
  8
26 道路
 10
-355.446865
 20
211.654220
  0
VERTEX
  8
26 道路
 10
-354.743372
 20
211.502979
  0
VERTEX
  8
26 道路
 10
-354.368199
 20
211.033754
  0
SEQEND
  0
POLYLINE
  8
26 道路
 40
0.070556
 41
0.070556
 62
252
 66
1
 10
0
 20
0
 30
0
 70
1
  0
VERTEX
  8
26 道路
 10
-357.177692
 20
208.903293
  0
VERTEX
  8
26 道路
 10
-358.058264
 20
208.627684
  0
VERTEX
  8
26 道路
 10
-360.295868
 20
207.375728
  0
VERTEX
  8
26 道路
 10
-362.426328
 20
206.043846
  0
VERTEX
  8
26 道路
 10
-362.462157
 20
206.019041
  0
VERTEX
  8
26 道路
 10
-361.955725
 20
206.840357
  0
VERTEX
  8
26 道路
 10
-360.150484
 20
209.108278
  0
VERTEX
  8
26 道路
 10
-359.137619
 20
210.324060
  0
SEQEND
  0
POLYLINE
  8
26 道路
 40
0.070556
 41
0.070556
 62
252
 66
1
 10
0
 20
0
 30
0
 70
1
  0
VERTEX
  8
26 道路
 10
-358.971909
 20
211.562235
  0
VERTEX
  8
26 道路
 10
-358.246023
 20
212.846575
  0
VERTEX
  8
26 道路
 10
-356.813543
 20
215.137578
  0
VERTEX
  8
26 道路
 10
-355.365905
 20
213.940055
  0
VERTEX
  8
26 道路
 10
-355.470637
 20
213.556269
  0
VERTEX
  8
26 道路
 10
-356.031157
 20
213.200388
  0
VERTEX
  8
26 道路
 10
-358.036215
 20
211.844045
  0
VERTEX
  8
26 道路
 10
-358.948138
 20
211.180516
  0
SEQEND
  0
POLYLINE
  8
26 道路
 40
0.070556
 41
0.070556
 62
252
 66
1
 10
0
 20
0
 30
0
 70
1
  0
VERTEX
  8
26 道路
 10
-353.745322
 20
218.057659
  0
VERTEX
  8
26 道路
 10
-354.810552
 20
218.124494
  0
VERTEX
  8
26 道路
 10
-354.862918
 20
218.105890
  0
VERTEX
  8
26 道路
 10
-355.587081
 20
217.841995
  0
VERTEX
  8
26 道路
 10
-356.927921
 20
215.952348
  0
VERTEX
  8
26 道路
 10
-358.700434
 20
213.116672
  0
VERTEX
  8
26 道路
 10
-359.509692
 20
211.686259
  0
VERTEX
  8
26 道路
 10
-359.452503
 20
210.772270
  0
VERTEX
  8
26 道路
 10
-360.561142
 20
209.442110
  0
VERTEX
  8
26 道路
 10
-362.387743
 20
207.144561
  0
VERTEX
  8
26 道路
 10
-363.537034
 20
205.287298
  0
VERTEX
  8
26 道路
 10
-364.022106
 20
204.955878
  0
VERTEX
  8
26 道路
 10
-364.287036
 20
205.139847
  0
VERTEX
  8
26 道路
 10
-355.184347
 20
219.344755
  0
VERTEX
  8
26 道路
 10
-353.604761
 20
219.547328
  0
VERTEX
  8
26 道路
 10
-346.351756
 20
215.203035
  0
VERTEX
  8
26 道路
 10
-347.276425
 20
213.869085
  0
SEQEND
  0
POLYLINE
  8
26 道路
 40
0.070556
 41
0.070556
 62
252
 66
1
 10
0
 20
0
 30
0
 70
1
  0
VERTEX
  8
26 道路
 10
-293.513994
 20
201.022243
  0
VERTEX
  8
26 道路
 10
-293.811996
 20
202.596662
  0
VERTEX
  8
26 道路
 10
-289.824618
 20
201.854584
  0
SEQEND
  0
POLYLINE
  8
26 道路
 40
0.070556
 41
0.070556
 62
252
 66
1
 10
0
 20
0
 30
0
 70
1
  0
VERTEX
  8
26 道路
 10
-287.806468
 20
201.260645
  0
VERTEX
  8
26 道路
 10
-285.050374
 20
189.350186
  0
VERTEX
  8
26 道路
 10
-291.106201
 20
188.273243
  0
VERTEX
  8
26 道路
 10
-293.324168
 20
200.015580
  0
SEQEND
  0
POLYLINE
  8
26 道路
 40
0.070556
 41
0.070556
 62
252
 66
1
 10
0
 20
0
 30
0
 70
1
  0
VERTEX
  8
26 道路
 10
-292.166608
 20
188.084450
  0
VERTEX
  8
26 道路
 10
-297.615061
 20
187.114994
  0
VERTEX
  8
26 道路
 10
-300.383213
 20
198.423936
  0
VERTEX
  8
26 道路
 10
-294.375617
 20
199.777867
  0
SEQEND
  0
POLYLINE
  8
26 道路
 40
0.070556
 41
0.070556
 62
252
 66
1
 10
0
 20
0
 30
0
 70
1
  0
VERTEX
  8
26 道路
 10
-297.474845
 20
183.218567
  0
VERTEX
  8
26 道路
 10
-301.350257
 20
182.339373
  0
VERTEX
  8
26 道路
 10
-302.031012
 20
185.297350
  0
VERTEX
  8
26 道路
 10
-298.152155
 20
185.986374
  0
SEQEND
  0
POLYLINE
  8
26 道路
 40
0.070556
 41
0.070556
 62
252
 66
1
 10
0
 20
0
 30
0
 70
1
  0
VERTEX
  8
26 道路
 10
-298.394691
 20
186.977190
  0
VERTEX
  8
26 道路
 10
-302.259424
 20
186.289200
  0
VERTEX
  8
26 道路
 10
-304.822246
 20
197.422096
  0
VERTEX
  8
26 道路
 10
-301.154230
 20
198.250302
  0
SEQEND
  0
POLYLINE
  8
26 道路
 40
0.070556
 41
0.070556
 62
252
 66
1
 10
0
 20
0
 30
0
 70
1
  0
VERTEX
  8
26 道路
 10
-307.420209
 20
185.371076
  0
VERTEX
  8
26 道路
 10
-316.682062
 20
183.722932
  0
VERTEX
  8
26 道路
 10
-318.883492
 20
194.250521
  0
VERTEX
  8
26 道路
 10
-309.933767
 20
196.269360
  0
SEQEND
  0
POLYLINE
  8
26 道路
 40
0.070556
 41
0.070556
 62
252
 66
1
 10
0
 20
0
 30
0
 70
1
  0
VERTEX
  8
26 道路
 10
-308.182958
 20
192.114548
  0
VERTEX
  8
26 道路
 10
-304.435704
 20
192.974450
  0
VERTEX
  8
26 道路
 10
-304.012988
 20
191.136824
  0
VERTEX
  8
26 道路
 10
-307.758520
 20
190.278301
  0
SEQEND
  0
POLYLINE
  8
26 道路
 40
0.070556
 41
0.070556
 62
252
 66
1
 10
0
 20
0
 30
0
 70
1
  0
VERTEX
  8
26 道路
 10
-307.632773
 20
189.731216
  0
VERTEX
  8
26 道路
 10
-303.887241
 20
190.589740
  0
VERTEX
  8
26 道路
 10
-302.871621
 20
186.179990
  0
VERTEX
  8
26 道路
 10
-306.658149
 20
185.507503
  0
SEQEND
  0
POLYLINE
  8
26 道路
 40
0.070556
 41
0.070556
 62
252
 66
1
 10
0
 20
0
 30
0
 70
1
  0
VERTEX
  8
26 道路
 10
-304.561795
 20
193.520156
  0
VERTEX
  8
26 道路
 10
-308.308360
 20
192.660944
  0
VERTEX
  8
26 道路
 10
-309.179630
 20
196.439548
  0
VERTEX
  8
26 道路
 10
-305.427898
 20
197.285669
  0
SEQEND
  0
POLYLINE
  8
26 道路
 40
0.070556
 41
0.070556
 62
252
 66
1
 10
0
 20
0
 30
0
 70
1
  0
VERTEX
  8
26 道路
 10
-309.409764
 20
197.437254
  0
VERTEX
  8
26 道路
 10
-310.432620
 20
201.872498
  0
VERTEX
  8
26 道路
 10
-306.674341
 20
202.697259
  0
VERTEX
  8
26 道路
 10
-305.657687
 20
198.283720
  0
SEQEND
  0
POLYLINE
  8
26 道路
 40
0.070556
 41
0.070556
 62
252
 66
1
 10
0
 20
0
 30
0
 70
1
  0
VERTEX
  8
26 道路
 10
-310.163900
 20
197.267066
  0
VERTEX
  8
26 道路
 10
-319.092955
 20
195.253050
  0
VERTEX
  8
26 道路
 10
-320.035539
 20
199.762709
  0
VERTEX
  8
26 道路
 10
-311.187789
 20
201.706444
  0
SEQEND
  0
POLYLINE
  8
26 道路
 40
0.070556
 41
0.070556
 62
252
 66
1
 10
0
 20
0
 30
0
 70
1
  0
VERTEX
  8
26 道路
 10
-319.708253
 20
193.345144
  0
VERTEX
  8
26 道路
 10
-317.683213
 20
183.656786
  0
VERTEX
  8
26 道路
 10
-323.566440
 20
187.636585
  0
SEQEND
  0
POLYLINE
  8
26 道路
 40
0.070556
 41
0.070556
 62
252
 66
1
 10
0
 20
0
 30
0
 70
1
  0
VERTEX
  8
26 道路
 10
-328.218382
 20
180.754619
  0
VERTEX
  8
26 道路
 10
-322.427829
 20
176.900222
  0
VERTEX
  8
26 道路
 10
-327.701614
 20
168.919952
  0
VERTEX
  8
26 道路
 10
-333.613435
 20
172.772282
  0
SEQEND
  0
POLYLINE
  8
26 道路
 40
0.070556
 41
0.070556
 62
252
 66
1
 10
0
 20
0
 30
0
 70
1
  0
VERTEX
  8
26 道路
 10
-334.702781
 20
173.481288
  0
VERTEX
  8
26 道路
 10
-340.861273
 20
177.494160
  0
VERTEX
  8
26 道路
 10
-335.668447
 20
185.714899
  0
VERTEX
  8
26 道路
 10
-329.300148
 20
181.474648
  0
SEQEND
  0
POLYLINE
  8
26 道路
 40
0.070556
 41
0.070556
 62
252
 66
1
 10
0
 20
0
 30
0
 70
1
  0
VERTEX
  8
26 道路
 10
-327.575523
 20
181.706849
  0
VERTEX
  8
26 道路
 10
-324.306795
 20
186.542071
  0
VERTEX
  8
26 道路
 10
-318.605127
 20
182.685263
  0
VERTEX
  8
26 道路
 10
-321.793927
 20
177.859342
  0
SEQEND
  0
POLYLINE
  8
26 道路
 40
0.070556
 41
0.070556
 62
252
 66
1
 10
0
 20
0
 30
0
 70
1
  0
VERTEX
  8
26 道路
 10
-324.643039
 20
188.364883
  0
VERTEX
  8
26 道路
 10
-331.193929
 20
192.795993
  0
VERTEX
  8
26 道路
 10
-327.366404
 20
198.854576
  0
VERTEX
  8
26 道路
 10
-320.596404
 20
194.352497
  0
SEQEND
  0
POLYLINE
  8
26 道路
 40
0.070556
 41
0.070556
 62
252
 66
1
 10
0
 20
0
 30
0
 70
1
  0
VERTEX
  8
26 道路
 10
-325.383395
 20
187.271403
  0
VERTEX
  8
26 道路
 10
-328.657289
 20
182.427568
  0
VERTEX
  8
26 道路
 10
-335.054183
 20
186.685733
  0
VERTEX
  8
26 道路
 10
-331.900178
 20
191.678397
  0
SEQEND
  0
POLYLINE
  8
26 道路
 40
0.070556
 41
0.070556
 62
252
 66
1
 10
0
 20
0
 30
0
 70
1
  0
VERTEX
  8
26 道路
 10
-336.237236
 20
187.473976
  0
VERTEX
  8
26 道路
 10
-344.130689
 20
192.727779
  0
VERTEX
  8
26 道路
 10
-340.937065
 20
197.792102
  0
VERTEX
  8
26 道路
 10
-333.077375
 20
192.474908
  0
SEQEND
  0
POLYLINE
  8
26 道路
 40
0.070556
 41
0.070556
 62
252
 66
1
 10
0
 20
0
 30
0
 70
1
  0
VERTEX
  8
26 道路
 10
-336.851156
 20
186.501074
  0
VERTEX
  8
26 道路
 10
-342.052250
 20
178.270000
  0
VERTEX
  8
26 道路
 10
-349.988077
 20
183.440432
  0
VERTEX
  8
26 道路
 10
-344.743920
 20
191.754878
  0
SEQEND
  0
POLYLINE
  8
26 道路
 40
0.070556
 41
0.070556
 62
252
 66
1
 10
0
 20
0
 30
0
  0
VERTEX
  8
26 道路
 10
-342.446716
 20
157.824263
  0
VERTEX
  8
26 道路
 10
-337.939469
 20
161.994578
  0
VERTEX
  8
26 道路
 10
-338.074517
 20
163.584155
  0
VERTEX
  8
26 道路
 10
-339.309247
 20
166.097712
  0
VERTEX
  8
26 道路
 10
-339.088760
 20
167.552930
  0
VERTEX
  8
26 道路
 10
-337.390662
 20
168.853806
  0
VERTEX
  8
26 道路
 10
-337.457497
 20
169.449122
  0
VERTEX
  8
26 道路
 10
-336.036041
 20
171.341181
  0
VERTEX
  8
26 道路
 10
-351.224530
 20
181.236935
  0
VERTEX
  8
26 道路
 10
-354.173205
 20
176.470960
  0
VERTEX
  8
26 道路
 10
-350.069037
 20
173.991165
  0
VERTEX
  8
26 道路
 10
-344.953727
 20
170.110585
  0
VERTEX
  8
26 道路
 10
-341.205440
 20
165.392152
  0
VERTEX
  8
26 道路
 10
-346.657682
 20
160.388464
  0
VERTEX
  8
26 道路
 10
-344.523432
 20
157.824263
  0
SEQEND
  0
POLYLINE
  8
26 道路
 40
0.070556
 41
0.070556
 62
252
 66
1
 10
0
 20
0
 30
0
 70
1
  0
VERTEX
  8
26 道路
 10
-337.250790
 20
167.600473
  0
VERTEX
  8
26 道路
 10
-335.740450
 20
165.459677
  0
VERTEX
  8
26 道路
 10
-335.740450
 20
164.111258
  0
VERTEX
  8
26 道路
 10
-336.121136
 20
163.876301
  0
VERTEX
  8
26 道路
 10
-337.453363
 20
164.153977
  0
VERTEX
  8
26 道路
 10
-338.515837
 20
166.318200
  0
VERTEX
  8
26 道路
 10
-338.383200
 20
167.023760
  0
VERTEX
  8
26 道路
 10
-337.280762
 20
167.868503
  0
SEQEND
  0
POLYLINE
  8
26 道路
 40
0.070556
 41
0.070556
 62
252
 66
1
 10
0
 20
0
 30
0
 70
1
  0
VERTEX
  8
26 道路
 10
-411.986406
 20
219.552840
  0
VERTEX
  8
26 道路
 10
-412.505930
 20
219.095328
  0
VERTEX
  8
26 道路
 10
-414.098607
 20
220.734515
  0
VERTEX
  8
26 道路
 10
-416.394089
 20
222.234519
  0
VERTEX
  8
26 道路
 10
-415.650633
 20
222.895292
  0
SEQEND
  0
POLYLINE
  8
26 道路
 40
0.070556
 41
0.070556
 62
252
 66
1
 10
0
 20
0
 30
0
 70
1
  0
VERTEX
  8
26 道路
 10
-414.497896
 20
223.919181
  0
VERTEX
  8
26 道路
 10
-414.231933
 20
224.154483
  0
VERTEX
  8
26 道路
 10
-413.330002
 20
222.820189
  0
SEQEND
  0
POLYLINE
  8
26 道路
 40
0.070556
 41
0.070556
 62
252
 66
1
 10
0
 20
0
 30
0
 70
1
  0
VERTEX
  8
26 道路
 10
-357.716164
 20
220.170205
  0
VERTEX
  8
26 道路
 10
-359.075263
 20
218.051458
  0
VERTEX
  8
26 道路
 10
-367.210907
 20
223.593962
  0
VERTEX
  8
26 道路
 10
-365.749488
 20
225.685837
  0
SEQEND
  0
POLYLINE
  8
26 道路
 40
0.070556
 41
0.070556
 62
252
 66
1
 10
0
 20
0
 30
0
 70
1
  0
VERTEX
  8
26 道路
 10
-365.372592
 20
226.226032
  0
VERTEX
  8
26 道路
 10
-363.844338
 20
228.411614
  0
VERTEX
  8
26 道路
 10
-355.926081
 20
222.960750
  0
VERTEX
  8
26 道路
 10
-357.359939
 20
220.724869
  0
SEQEND
  0
POLYLINE
  8
26 道路
 40
0.070556
 41
0.070556
 62
252
 66
1
 10
0
 20
0
 30
0
 70
1
  0
VERTEX
  8
26 道路
 10
-371.619968
 20
178.879097
  0
VERTEX
  8
26 道路
 10
-368.680594
 20
175.012298
  0
VERTEX
  8
26 道路
 10
-371.467005
 20
172.564197
  0
VERTEX
  8
26 道路
 10
-374.663729
 20
176.152631
  0
SEQEND
  0
POLYLINE
  8
26 道路
 40
0.070556
 41
0.070556
 62
252
 66
1
 10
0
 20
0
 30
0
 70
1
  0
VERTEX
  8
26 道路
 10
-371.963446
 20
184.027480
  0
VERTEX
  8
26 道路
 10
-371.865260
 20
184.066755
  0
VERTEX
  8
26 道路
 10
-367.897863
 20
182.194678
  0
VERTEX
  8
26 道路
 10
-369.542562
 20
180.840747
  0
SEQEND
  0
POLYLINE
  8
26 道路
 40
0.070556
 41
0.070556
 62
252
 66
1
 10
0
 20
0
 30
0
  0
VERTEX
  8
26 道路
 10
-434.355552
 20
208.054761
  0
VERTEX
  8
26 道路
 10
-431.492659
 20
210.595880
  0
VERTEX
  8
26 道路
 10
-433.350956
 20
212.724617
  0
VERTEX
  8
26 道路
 10
-434.355552
 20
211.862649
  0
SEQEND
  0
POLYLINE
  8
26 道路
 40
0.070556
 41
0.070556
 62
252
 66
1
 10
0
 20
0
 30
0
  0
VERTEX
  8
26 道路
 10
-434.355552
 20
212.574410
  0
VERTEX
  8
26 道路
 10
-433.706147
 20
213.131830
  0
VERTEX
  8
26 道路
 10
-434.230150
 20
213.731970
  0
VERTEX
  8
26 道路
 10
-434.355552
 20
213.622759
  0
SEQEND
  0
POLYLINE
  8
26 道路
 40
0.070556
 41
0.070556
 62
252
 66
1
 10
0
 20
0
 30
0
 70
1
  0
VERTEX
  8
26 道路
 10
-417.343563
 20
178.804683
  0
VERTEX
  8
26 道路
 10
-421.946584
 20
174.841764
  0
VERTEX
  8
26 道路
 10
-424.115975
 20
177.232331
  0
VERTEX
  8
26 道路
 10
-419.544304
 20
181.212820
  0
SEQEND
  0
POLYLINE
  8
26 道路
 40
0.070556
 41
0.070556
 62
252
 66
1
 10
0
 20
0
 30
0
 70
1
  0
VERTEX
  8
26 道路
 10
-418.670278
 20
181.974879
  0
VERTEX
  8
26 道路
 10
-411.752138
 20
187.999700
  0
VERTEX
  8
26 道路
 10
-409.535550
 20
185.527484
  0
VERTEX
  8
26 道路
 10
-416.465058
 20
179.560541
  0
SEQEND
  0
POLYLINE
  8
26 道路
 40
0.070556
 41
0.070556
 62
252
 66
1
 10
0
 20
0
 30
0
 70
1
  0
VERTEX
  8
26 道路
 10
-402.641181
 20
169.593817
  0
VERTEX
  8
26 道路
 10
-405.801732
 20
167.196016
  0
VERTEX
  8
26 道路
 10
-412.791185
 20
175.033657
  0
VERTEX
  8
26 道路
 10
-409.736744
 20
177.625764
  0
SEQEND
  0
POLYLINE
  8
26 道路
 40
0.070556
 41
0.070556
 62
252
 66
1
 10
0
 20
0
 30
0
 70
1
  0
VERTEX
  8
26 道路
 10
-404.935285
 20
173.871964
  0
VERTEX
  8
26 道路
 10
-401.644853
 20
176.725210
  0
VERTEX
  8
26 道路
 10
-398.242800
 20
172.931447
  0
VERTEX
  8
26 道路
 10
-401.751652
 20
170.268371
  0
SEQEND
  0
POLYLINE
  8
26 道路
 40
0.070556
 41
0.070556
 62
252
 66
1
 10
0
 20
0
 30
0
 70
1
  0
VERTEX
  8
26 道路
 10
-406.749828
 20
166.477364
  0
VERTEX
  8
26 道路
 10
-408.784514
 20
164.933263
  0
VERTEX
  8
26 道路
 10
-415.656145
 20
172.603472
  0
VERTEX
  8
26 道路
 10
-413.695873
 20
174.266085
  0
SEQEND
  0
POLYLINE
  8
26 道路
 40
0.070556
 41
0.070556
 62
252
 66
1
 10
0
 20
0
 30
0
 70
1
  0
VERTEX
  8
26 道路
 10
-409.539684
 20
164.360684
  0
VERTEX
  8
26 道路
 10
-411.258108
 20
163.057052
  0
VERTEX
  8
26 道路
 10
-418.063593
 20
170.561206
  0
VERTEX
  8
26 道路
 10
-416.376174
 20
171.991619
  0
SEQEND
  0
POLYLINE
  8
26 道路
 40
0.070556
 41
0.070556
 62
252
 66
1
 10
0
 20
0
 30
0
 70
1
  0
VERTEX
  8
26 道路
 10
-413.501913
 20
161.687273
  0
VERTEX
  8
26 道路
 10
-416.891564
 20
159.699441
  0
VERTEX
  8
26 道路
 10
-423.931316
 20
167.317973
  0
VERTEX
  8
26 道路
 10
-420.380089
 20
169.269976
  0
SEQEND
  0
POLYLINE
  8
26 道路
 40
0.070556
 41
0.070556
 62
252
 66
1
 10
0
 20
0
 30
0
  0
VERTEX
  8
26 道路
 10
-420.089666
 20
157.824263
  0
VERTEX
  8
26 道路
 10
-417.866187
 20
159.128240
  0
VERTEX
  8
26 道路
 10
-421.067046
 20
162.591961
  0
VERTEX
  8
26 道路
 10
-427.233806
 20
159.184740
  0
VERTEX
  8
26 道路
 10
-426.452453
 20
157.824263
  0
SEQEND
  0
POLYLINE
  8
26 道路
 40
0.070556
 41
0.070556
 62
252
 66
1
 10
0
 20
0
 30
0
  0
VERTEX
  8
26 道路
 10
-427.886655
 20
157.824263
  0
VERTEX
  8
26 道路
 10
-428.322463
 20
158.583223
  0
VERTEX
  8
26 道路
 10
-429.696375
 20
157.824263
  0
SEQEND
  0
POLYLINE
  8
26 道路
 40
0.070556
 41
0.070556
 62
252
 66
1
 10
0
 20
0
 30
0
 70
1
  0
VERTEX
  8
26 道路
 10
-427.657555
 20
159.923373
  0
VERTEX
  8
26 道路
 10
-429.991277
 20
163.985856
  0
VERTEX
  8
26 道路
 10
-424.927644
 20
166.770199
  0
VERTEX
  8
26 道路
 10
-421.661673
 20
163.236887
  0
SEQEND
  0
POLYLINE
  8
26 道路
 40
0.070556
 41
0.070556
 62
252
 66
1
 10
0
 20
0
 30
0
  0
VERTEX
  8
26 道路
 10
-431.457519
 20
157.824263
  0
VERTEX
  8
26 道路
 10
-428.746901
 20
159.321856
  0
VERTEX
  8
26 道路
 10
-431.081312
 20
163.387094
  0
VERTEX
  8
26 道路
 10
-434.355552
 20
161.587020
  0
SEQEND
  0
POLYLINE
  8
26 道路
 40
0.070556
 41
0.070556
 62
252
 66
1
 10
0
 20
0
 30
0
  0
VERTEX
  8
26 道路
 10
-434.355552
 20
168.805575
  0
VERTEX
  8
26 道路
 10
-434.306631
 20
168.832446
  0
VERTEX
  8
26 道路
 10
-434.355552
 20
168.919952
  0
SEQEND
  0
POLYLINE
  8
26 道路
 40
0.070556
 41
0.070556
 62
252
 66
1
 10
0
 20
0
 30
0
  0
VERTEX
  8
26 道路
 10
-434.355552
 20
164.903979
  0
VERTEX
  8
26 道路
 10
-432.682603
 20
165.924768
  0
VERTEX
  8
26 道路
 10
-433.497718
 20
167.384119
  0
VERTEX
  8
26 道路
 10
-434.355552
 20
166.912483
  0
SEQEND
  0
POLYLINE
  8
26 道路
 40
0.070556
 41
0.070556
 62
252
 66
1
 10
0
 20
0
 30
0
  0
VERTEX
  8
26 道路
 10
-434.355552
 20
172.657905
  0
VERTEX
  8
26 道路
 10
-432.413884
 20
173.624604
  0
VERTEX
  8
26 道路
 10
-434.355552
 20
176.258741
  0
SEQEND
  0
POLYLINE
  8
26 道路
 40
0.070556
 41
0.070556
 62
252
 66
1
 10
0
 20
0
 30
0
  0
VERTEX
  8
26 道路
 10
-434.355552
 20
163.519731
  0
VERTEX
  8
26 道路
 10
-432.047323
 20
164.788568
  0
VERTEX
  8
26 道路
 10
-432.458670
 20
165.524445
  0
VERTEX
  8
26 道路
 10
-434.355552
 20
164.366886
  0
SEQEND
  0
POLYLINE
  8
26 道路
 40
0.070556
 41
0.070556
 62
252
 66
1
 10
0
 20
0
 30
0
 70
1
  0
VERTEX
  8
26 道路
 10
-433.030560
 20
169.533872
  0
VERTEX
  8
26 道路
 10
-434.260122
 20
171.735991
  0
VERTEX
  8
26 道路
 10
-426.237478
 20
175.729227
  0
VERTEX
  8
26 道路
 10
-424.748498
 20
174.086250
  0
SEQEND
  0
POLYLINE
  8
26 道路
 40
0.070556
 41
0.070556
 62
252
 66
1
 10
0
 20
0
 30
0
  0
VERTEX
  8
26 道路
 10
-434.355552
 20
177.430770
  0
VERTEX
  8
26 道路
 10
-431.782049
 20
173.938110
  0
VERTEX
  8
26 道路
 10
-426.843129
 20
176.395857
  0
VERTEX
  8
26 道路
 10
-430.708551
 20
180.656778
  0
VERTEX
  8
26 道路
 10
-434.355552
 20
177.774248
  0
SEQEND
  0
POLYLINE
  8
26 道路
 40
0.070556
 41
0.070556
 62
252
 66
1
 10
0
 20
0
 30
0
  0
VERTEX
  8
26 道路
 10
-434.355552
 20
179.143338
  0
VERTEX
  8
26 道路
 10
-431.432025
 20
181.455356
  0
VERTEX
  8
26 道路
 10
-432.846591
 20
183.014271
  0
VERTEX
  8
26 道路
 10
-434.355552
 20
183.153799
  0
SEQEND
  0
POLYLINE
  8
26 道路
 40
0.070556
 41
0.070556
 62
252
 66
1
 10
0
 20
0
 30
0
 70
1
  0
VERTEX
  8
26 道路
 10
-430.771941
 20
165.489994
  0
VERTEX
  8
26 道路
 10
-432.221646
 20
168.085890
  0
VERTEX
  8
26 道路
 10
-423.603341
 20
172.823959
  0
VERTEX
  8
26 道路
 10
-421.550051
 20
170.561206
  0
SEQEND
  0
POLYLINE
  8
26 道路
 40
0.070556
 41
0.070556
 62
252
 66
1
 10
0
 20
0
 30
0
 70
1
  0
VERTEX
  8
26 道路
 10
-424.888025
 20
178.083964
  0
VERTEX
  8
26 道路
 10
-428.109554
 20
181.635191
  0
VERTEX
  8
26 道路
 10
-423.563722
 20
185.612234
  0
VERTEX
  8
26 道路
 10
-420.320144
 20
182.061696
  0
SEQEND
  0
POLYLINE
  8
26 道路
 40
0.070556
 41
0.070556
 62
252
 66
1
 10
0
 20
0
 30
0
 70
1
  0
VERTEX
  8
26 道路
 10
-428.473014
 20
182.036203
  0
VERTEX
  8
26 道路
 10
-431.401019
 20
185.264277
  0
VERTEX
  8
26 道路
 10
-431.336251
 20
186.175855
  0
VERTEX
  8
26 道路
 10
-427.172138
 20
189.561028
  0
VERTEX
  8
26 道路
 10
-423.929594
 20
186.012901
  0
SEQEND
  0
POLYLINE
  8
26 道路
 40
0.070556
 41
0.070556
 62
252
 66
1
 10
0
 20
0
 30
0
  0
VERTEX
  8
26 道路
 10
-434.355552
 20
188.495108
  0
VERTEX
  8
26 道路
 10
-434.040668
 20
188.157487
  0
VERTEX
  8
26 道路
 10
-432.837289
 20
188.072048
  0
VERTEX
  8
26 道路
 10
-428.791688
 20
191.361446
  0
VERTEX
  8
26 道路
 10
-431.684208
 20
194.524063
  0
VERTEX
  8
26 道路
 10
-434.355552
 20
192.120061
  0
SEQEND
  0
POLYLINE
  8
26 道路
 40
0.070556
 41
0.070556
 62
252
 66
1
 10
0
 20
0
 30
0
  0
VERTEX
  8
26 道路
 10
-434.355552
 20
193.525324
  0
VERTEX
  8
26 道路
 10
-432.388390
 20
195.295081
  0
VERTEX
  8
26 道路
 10
-434.355552
 20
197.445867
  0
SEQEND
  0
POLYLINE
  8
26 道路
 40
0.070556
 41
0.070556
 62
252
 66
1
 10
0
 20
0
 30
0
  0
VERTEX
  8
26 道路
 10
-434.355552
 20
199.870541
  0
VERTEX
  8
26 道路
 10
-430.817416
 20
202.983204
  0
VERTEX
  8
26 道路
 10
-431.912619
 20
204.175215
  0
VERTEX
  8
26 道路
 10
-434.355552
 20
201.977230
  0
SEQEND
  0
POLYLINE
  8
26 道路
 40
0.070556
 41
0.070556
 62
252
 66
1
 10
0
 20
0
 30
0
  0
VERTEX
  8
26 道路
 10
-434.355552
 20
202.758582
  0
VERTEX
  8
26 道路
 10
-432.305707
 20
204.602409
  0
VERTEX
  8
26 道路
 10
-434.079942
 20
206.533742
  0
VERTEX
  8
26 道路
 10
-434.355552
 20
206.289139
  0
SEQEND
  0
POLYLINE
  8
26 道路
 40
0.070556
 41
0.070556
 62
252
 66
1
 10
0
 20
0
 30
0
  0
VERTEX
  8
26 道路
 10
-409.998573
 20
157.824263
  0
VERTEX
  8
26 道路
 10
-412.160040
 20
160.207251
  0
VERTEX
  8
26 道路
 10
-415.533499
 20
158.229065
  0
VERTEX
  8
26 道路
 10
-415.159359
 20
157.824263
  0
SEQEND
  0
POLYLINE
  8
26 道路
 40
0.070556
 41
0.070556
 62
252
 66
1
 10
0
 20
0
 30
0
  0
VERTEX
  8
26 道路
 10
-399.032421
 20
157.824263
  0
VERTEX
  8
26 道路
 10
-405.446884
 20
165.016635
  0
VERTEX
  8
26 道路
 10
-409.941729
 20
161.606658
  0
VERTEX
  8
26 道路
 10
-406.511426
 20
157.824263
  0
SEQEND
  0
POLYLINE
  8
26 道路
 40
0.070556
 41
0.070556
 62
252
 66
1
 10
0
 20
0
 30
0
 70
1
  0
VERTEX
  8
26 道路
 10
-404.498788
 20
165.735975
  0
VERTEX
  8
26 道路
 10
-402.326986
 20
167.383430
  0
VERTEX
  8
26 道路
 10
-395.404368
 20
159.585752
  0
VERTEX
  8
26 道路
 10
-397.411493
 20
157.788090
  0
SEQEND
  0
POLYLINE
  8
26 道路
 40
0.070556
 41
0.070556
 62
252
 66
1
 10
0
 20
0
 30
0
 70
1
  0
VERTEX
  8
26 道路
 10
-396.460641
 20
162.750437
  0
VERTEX
  8
26 道路
 10
-392.429165
 20
166.422242
  0
VERTEX
  8
26 道路
 10
-390.359683
 20
164.102990
  0
VERTEX
  8
26 道路
 10
-394.427333
 20
160.460123
  0
SEQEND
  0
POLYLINE
  8
26 道路
 40
0.070556
 41
0.070556
 62
252
 66
1
 10
0
 20
0
 30
0
 70
1
  0
VERTEX
  8
26 道路
 10
-397.039421
 20
163.402942
  0
VERTEX
  8
26 道路
 10
-401.278982
 20
168.177874
  0
VERTEX
  8
26 道路
 10
-396.937445
 20
171.472440
  0
VERTEX
  8
26 道路
 10
-393.010011
 20
167.072681
  0
SEQEND
  0
POLYLINE
  8
26 道路
 40
0.070556
 41
0.070556
 62
252
 66
1
 10
0
 20
0
 30
0
 70
1
  0
VERTEX
  8
26 道路
 10
-396.938134
 20
173.920195
  0
VERTEX
  8
26 道路
 10
-398.484303
 20
175.644821
  0
VERTEX
  8
26 道路
 10
-394.696741
 20
179.137481
  0
VERTEX
  8
26 道路
 10
-392.785045
 20
177.071789
  0
SEQEND
  0
POLYLINE
  8
26 道路
 40
0.070556
 41
0.070556
 62
252
 66
1
 10
0
 20
0
 30
0
 70
1
  0
VERTEX
  8
26 道路
 10
-398.954906
 20
176.170546
  0
VERTEX
  8
26 道路
 10
-400.410812
 20
177.794574
  0
VERTEX
  8
26 道路
 10
-396.550903
 20
181.141161
  0
VERTEX
  8
26 道路
 10
-395.175612
 20
179.654249
  0
SEQEND
  0
POLYLINE
  8
26 道路
 40
0.070556
 41
0.070556
 62
252
 66
1
 10
0
 20
0
 30
0
 70
1
  0
VERTEX
  8
26 道路
 10
-400.942049
 20
178.387134
  0
VERTEX
  8
26 道路
 10
-404.354782
 20
182.193300
  0
VERTEX
  8
26 道路
 10
-400.527946
 20
185.439978
  0
VERTEX
  8
26 道路
 10
-397.091097
 20
181.724764
  0
SEQEND
  0
POLYLINE
  8
26 道路
 40
0.070556
 41
0.070556
 62
252
 66
1
 10
0
 20
0
 30
0
 70
1
  0
VERTEX
  8
26 道路
 10
-402.175401
 20
177.317770
  0
VERTEX
  8
26 道路
 10
-405.462043
 20
174.467969
  0
VERTEX
  8
26 道路
 10
-408.887868
 20
178.345793
  0
VERTEX
  8
26 道路
 10
-405.599159
 20
181.137027
  0
SEQEND
  0
POLYLINE
  8
26 道路
 40
0.070556
 41
0.070556
 62
252
 66
1
 10
0
 20
0
 30
0
 70
1
  0
VERTEX
  8
26 道路
 10
-418.728500
 20
171.292949
  0
VERTEX
  8
26 道路
 10
-421.218631
 20
174.038018
  0
VERTEX
  8
26 道路
 10
-408.810697
 20
184.719949
  0
VERTEX
  8
26 道路
 10
-406.259243
 20
181.873593
  0
SEQEND
  0
POLYLINE
  8
26 道路
 40
0.070556
 41
0.070556
 62
252
 66
1
 10
0
 20
0
 30
0
 70
1
  0
VERTEX
  8
26 道路
 10
-410.520853
 20
189.071821
  0
VERTEX
  8
26 道路
 10
-406.695395
 20
192.403249
  0
VERTEX
  8
26 道路
 10
-404.479496
 20
189.880045
  0
VERTEX
  8
26 道路
 10
-408.298063
 20
186.592026
  0
SEQEND
  0
POLYLINE
  8
26 道路
 40
0.070556
 41
0.070556
 62
252
 66
1
 10
0
 20
0
 30
0
 70
1
  0
VERTEX
  8
26 道路
 10
-406.058737
 20
192.958602
  0
VERTEX
  8
26 道路
 10
-401.846048
 20
196.626963
  0
VERTEX
  8
26 道路
 10
-399.569515
 20
194.107204
  0
VERTEX
  8
26 道路
 10
-403.840082
 20
190.430575
  0
SEQEND
  0
POLYLINE
  8
26 道路
 40
0.070556
 41
0.070556
 62
252
 66
1
 10
0
 20
0
 30
0
 70
1
  0
VERTEX
  8
26 道路
 10
-406.817352
 20
193.821259
  0
VERTEX
  8
26 道路
 10
-408.911983
 20
196.149470
  0
VERTEX
  8
26 道路
 10
-404.733056
 20
199.858483
  0
VERTEX
  8
26 道路
 10
-402.613620
 20
197.482041
  0
SEQEND
  0
POLYLINE
  8
26 道路
 40
0.070556
 41
0.070556
 62
252
 66
1
 10
0
 20
0
 30
0
 70
1
  0
VERTEX
  8
26 道路
 10
-407.454010
 20
193.266596
  0
VERTEX
  8
26 道路
 10
-411.287736
 20
189.928966
  0
VERTEX
  8
26 道路
 10
-413.360319
 20
192.201365
  0
VERTEX
  8
26 道路
 10
-409.543129
 20
195.589294
  0
SEQEND
  0
POLYLINE
  8
26 道路
 40
0.070556
 41
0.070556
 62
252
 66
1
 10
0
 20
0
 30
0
 70
1
  0
VERTEX
  8
26 道路
 10
-412.519021
 20
188.856157
  0
VERTEX
  8
26 道路
 10
-419.445085
 20
182.823067
  0
VERTEX
  8
26 道路
 10
-426.316715
 20
190.343069
  0
VERTEX
  8
26 道路
 10
-419.871590
 20
197.058292
  0
SEQEND
  0
POLYLINE
  8
26 道路
 40
0.070556
 41
0.070556
 62
252
 66
1
 10
0
 20
0
 30
0
 70
1
  0
VERTEX
  8
26 道路
 10
-427.968994
 20
192.031177
  0
VERTEX
  8
26 道路
 10
-430.896999
 20
195.233068
  0
VERTEX
  8
26 道路
 10
-423.721164
 20
201.690596
  0
VERTEX
  8
26 道路
 10
-421.358503
 20
198.982734
  0
SEQEND
  0
POLYLINE
  8
26 道路
 40
0.070556
 41
0.070556
 62
252
 66
1
 10
0
 20
0
 30
0
 70
1
  0
VERTEX
  8
26 道路
 10
-431.602214
 20
196.004086
  0
VERTEX
  8
26 道路
 10
-433.698568
 20
198.295778
  0
VERTEX
  8
26 道路
 10
-426.379417
 20
204.736080
  0
VERTEX
  8
26 道路
 10
-424.408120
 20
202.477461
  0
SEQEND
  0
POLYLINE
  8
26 道路
 40
0.070556
 41
0.070556
 62
252
 66
1
 10
0
 20
0
 30
0
 70
1
  0
VERTEX
  8
26 道路
 10
-430.394356
 20
203.355277
  0
VERTEX
  8
26 道路
 10
-431.493693
 20
204.552110
  0
VERTEX
  8
26 道路
 10
-428.538816
 20
207.210363
  0
VERTEX
  8
26 道路
 10
-427.441202
 20
205.953584
  0
SEQEND
  0
POLYLINE
  8
26 道路
 40
0.070556
 41
0.070556
 62
252
 66
1
 10
0
 20
0
 30
0
 70
1
  0
VERTEX
  8
26 道路
 10
-431.886781
 20
204.979994
  0
VERTEX
  8
26 道路
 10
-433.659638
 20
206.909260
  0
VERTEX
  8
26 道路
 10
-430.625868
 20
209.601274
  0
VERTEX
  8
26 道路
 10
-428.920535
 20
207.647893
  0
SEQEND
  0
POLYLINE
  8
26 道路
 40
0.070556
 41
0.070556
 62
252
 66
1
 10
0
 20
0
 30
0
  0
VERTEX
  8
26 道路
 10
-395.130481
 20
157.824263
  0
VERTEX
  8
26 道路
 10
-389.364388
 20
162.988150
  0
VERTEX
  8
26 道路
 10
-384.754477
 20
157.824263
  0
SEQEND
  0
POLYLINE
  8
26 道路
 40
0.070556
 41
0.070556
 62
252
 66
1
 10
0
 20
0
 30
0
  0
VERTEX
  8
26 道路
 10
-379.919255
 20
157.824263
  0
VERTEX
  8
26 道路
 10
-377.626874
 20
159.789703
  0
VERTEX
  8
26 道路
 10
-380.676492
 20
163.222418
  0
VERTEX
  8
26 道路
 10
-384.436493
 20
159.919239
  0
VERTEX
  8
26 道路
 10
-382.566828
 20
157.824263
  0
SEQEND
  0
POLYLINE
  8
26 道路
 40
0.070556
 41
0.070556
 62
252
 66
1
 10
0
 20
0
 30
0
 70
1
  0
VERTEX
  8
26 道路
 10
-385.060748
 20
160.617909
  0
VERTEX
  8
26 道路
 10
-388.148951
 20
164.077496
  0
VERTEX
  8
26 道路
 10
-384.410310
 20
167.424083
  0
VERTEX
  8
26 道路
 10
-381.299025
 20
163.923154
  0
SEQEND
  0
POLYLINE
  8
26 道路
 40
0.070556
 41
0.070556
 62
252
 66
1
 10
0
 20
0
 30
0
  0
VERTEX
  8
26 道路
 10
-366.907392
 20
157.824263
  0
VERTEX
  8
26 道路
 10
-367.374550
 20
158.355156
  0
VERTEX
  8
26 道路
 10
-368.005351
 20
157.824263
  0
SEQEND
  0
POLYLINE
  8
26 道路
 40
0.070556
 41
0.070556
 62
252
 66
1
 10
0
 20
0
 30
0
  0
VERTEX
  8
26 道路
 10
-369.565644
 20
157.824263
  0
VERTEX
  8
26 道路
 10
-368.038424
 20
159.108948
  0
VERTEX
  8
26 道路
 10
-370.734917
 20
162.172346
  0
VERTEX
  8
26 道路
 10
-375.180841
 20
158.359979
  0
VERTEX
  8
26 道路
 10
-374.704726
 20
157.824263
  0
SEQEND
  0
POLYLINE
  8
26 道路
 40
0.070556
 41
0.070556
 62
252
 66
1
 10
0
 20
0
 30
0
 70
1
  0
VERTEX
  8
26 道路
 10
-376.959210
 20
160.362970
  0
VERTEX
  8
26 道路
 10
-380.016407
 20
163.802575
  0
VERTEX
  8
26 道路
 10
-375.651788
 20
167.639747
  0
VERTEX
  8
26 道路
 10
-372.517765
 20
164.171892
  0
SEQEND
  0
POLYLINE
  8
26 道路
 40
0.070556
 41
0.070556
 62
252
 66
1
 10
0
 20
0
 30
0
 70
1
  0
VERTEX
  8
26 道路
 10
-380.639285
 20
164.503312
  0
VERTEX
  8
26 道路
 10
-383.755738
 20
168.011130
  0
VERTEX
  8
26 道路
 10
-379.461744
 20
171.855881
  0
VERTEX
  8
26 道路
 10
-376.279833
 20
168.334972
  0
SEQEND
  0
POLYLINE
  8
26 道路
 40
0.070556
 41
0.070556
 62
252
 66
1
 10
0
 20
0
 30
0
 70
1
  0
VERTEX
  8
26 道路
 10
-389.143901
 20
165.191647
  0
VERTEX
  8
26 道路
 10
-395.632435
 20
172.461533
  0
VERTEX
  8
26 道路
 10
-386.363691
 20
179.493017
  0
VERTEX
  8
26 道路
 10
-380.464273
 20
172.964520
  0
SEQEND
  0
POLYLINE
  8
26 道路
 40
0.070556
 41
0.070556
 62
252
 66
1
 10
0
 20
0
 30
0
 70
1
  0
VERTEX
  8
26 道路
 10
-392.086720
 20
177.600959
  0
VERTEX
  8
26 道路
 10
-393.602227
 20
179.238767
  0
VERTEX
  8
26 道路
 10
-389.482900
 20
182.945713
  0
VERTEX
  8
26 道路
 10
-387.676281
 20
180.946167
  0
SEQEND
  0
POLYLINE
  8
26 道路
 40
0.070556
 41
0.070556
 62
252
 66
1
 10
0
 20
0
 30
0
 70
1
  0
VERTEX
  8
26 道路
 10
-394.053193
 20
179.726596
  0
VERTEX
  8
26 道路
 10
-395.891507
 20
181.713051
  0
VERTEX
  8
26 道路
 10
-391.673650
 20
185.369009
  0
VERTEX
  8
26 道路
 10
-389.928010
 20
183.438365
  0
SEQEND
  0
POLYLINE
  8
26 道路
 40
0.070556
 41
0.070556
 62
252
 66
1
 10
0
 20
0
 30
0
 70
1
  0
VERTEX
  8
26 道路
 10
-396.431702
 20
182.297342
  0
VERTEX
  8
26 道路
 10
-399.861661
 20
186.004978
  0
VERTEX
  8
26 道路
 10
-395.552852
 20
189.661625
  0
VERTEX
  8
26 道路
 10
-392.207644
 20
185.959847
  0
SEQEND
  0
POLYLINE
  8
26 道路
 40
0.070556
 41
0.070556
 62
252
 66
1
 10
0
 20
0
 30
0
 70
1
  0
VERTEX
  8
26 道路
 10
-405.014522
 20
182.929866
  0
VERTEX
  8
26 道路
 10
-407.573900
 20
185.784490
  0
VERTEX
  8
26 道路
 10
-398.842595
 20
193.302425
  0
VERTEX
  8
26 道路
 10
-396.216382
 20
190.396124
  0
SEQEND
  0
POLYLINE
  8
26 道路
 40
0.070556
 41
0.070556
 62
252
 66
1
 10
0
 20
0
 30
0
 70
1
  0
VERTEX
  8
26 道路
 10
-400.807690
 20
197.530273
  0
VERTEX
  8
26 道路
 10
-396.489580
 20
201.290963
  0
VERTEX
  8
26 道路
 10
-394.022187
 20
198.883515
  0
VERTEX
  8
26 道路
 10
-398.526333
 20
195.005691
  0
SEQEND
  0
POLYLINE
  8
26 道路
 40
0.070556
 41
0.070556
 62
252
 66
1
 10
0
 20
0
 30
0
 70
1
  0
VERTEX
  8
26 道路
 10
-401.575262
 20
198.386729
  0
VERTEX
  8
26 道路
 10
-403.703655
 20
200.772817
  0
VERTEX
  8
26 道路
 10
-399.508881
 20
204.494922
  0
VERTEX
  8
26 道路
 10
-397.311585
 20
202.099876
  0
SEQEND
  0
POLYLINE
  8
26 道路
 40
0.070556
 41
0.070556
 62
252
 66
1
 10
0
 20
0
 30
0
 70
1
  0
VERTEX
  8
26 道路
 10
-404.148764
 20
201.272359
  0
VERTEX
  8
26 道路
 10
-405.313903
 20
202.577369
  0
VERTEX
  8
26 道路
 10
-401.170116
 20
206.305675
  0
VERTEX
  8
26 道路
 10
-399.961569
 20
204.988262
  0
SEQEND
  0
POLYLINE
  8
26 道路
 40
0.070556
 41
0.070556
 62
252
 66
1
 10
0
 20
0
 30
0
 70
1
  0
VERTEX
  8
26 道路
 10
-405.178854
 20
200.357336
  0
VERTEX
  8
26 道路
 10
-409.359160
 20
196.646945
  0
VERTEX
  8
26 道路
 10
-410.496737
 20
197.911303
  0
VERTEX
  8
26 道路
 10
-406.337103
 20
201.656145
  0
SEQEND
  0
POLYLINE
  8
26 道路
 40
0.070556
 41
0.070556
 62
252
 66
1
 10
0
 20
0
 30
0
 70
1
  0
VERTEX
  8
26 道路
 10
-410.938401
 20
198.402576
  0
VERTEX
  8
26 道路
 10
-414.240891
 20
202.073004
  0
VERTEX
  8
26 道路
 10
-410.036470
 20
205.804755
  0
VERTEX
  8
26 道路
 10
-406.775666
 20
202.148797
  0
SEQEND
  0
POLYLINE
  8
26 道路
 40
0.070556
 41
0.070556
 62
252
 66
1
 10
0
 20
0
 30
0
 70
1
  0
VERTEX
  8
26 道路
 10
-409.990305
 20
196.086768
  0
VERTEX
  8
26 道路
 10
-413.810940
 20
192.695395
  0
VERTEX
  8
26 道路
 10
-418.720232
 20
198.080113
  0
VERTEX
  8
26 道路
 10
-414.866524
 20
201.507316
  0
SEQEND
  0
POLYLINE
  8
26 道路
 40
0.070556
 41
0.070556
 62
252
 66
1
 10
0
 20
0
 30
0
 70
1
  0
VERTEX
  8
26 道路
 10
-420.589897
 20
199.837812
  0
VERTEX
  8
26 道路
 10
-422.872976
 20
202.454723
  0
VERTEX
  8
26 道路
 10
-418.840811
 20
206.083121
  0
VERTEX
  8
26 道路
 10
-416.565656
 20
203.442783
  0
SEQEND
  0
POLYLINE
  8
26 道路
 40
0.070556
 41
0.070556
 62
252
 66
1
 10
0
 20
0
 30
0
 70
1
  0
VERTEX
  8
26 道路
 10
-423.559244
 20
203.242277
  0
VERTEX
  8
26 道路
 10
-425.520893
 20
205.491249
  0
VERTEX
  8
26 道路
 10
-421.430850
 20
209.090708
  0
VERTEX
  8
26 道路
 10
-419.522600
 20
206.874808
  0
SEQEND
  0
POLYLINE
  8
26 道路
 40
0.070556
 41
0.070556
 62
252
 66
1
 10
0
 20
0
 30
0
 70
1
  0
VERTEX
  8
26 道路
 10
-426.582678
 20
206.709443
  0
VERTEX
  8
26 道路
 10
-429.768723
 20
210.361956
  0
VERTEX
  8
26 道路
 10
-425.664899
 20
214.004823
  0
VERTEX
  8
26 道路
 10
-422.485745
 20
210.313724
  0
SEQEND
  0
POLYLINE
  8
26 道路
 40
0.070556
 41
0.070556
 62
252
 66
1
 10
0
 20
0
 30
0
 70
1
  0
VERTEX
  8
26 道路
 10
-425.904679
 20
215.556504
  0
VERTEX
  8
26 道路
 10
-428.605651
 20
218.631615
  0
VERTEX
  8
26 道路
 10
-423.373896
 20
223.188816
  0
VERTEX
  8
26 道路
 10
-420.158224
 20
220.658033
  0
SEQEND
  0
POLYLINE
  8
26 道路
 40
0.070556
 41
0.070556
 62
252
 66
1
 10
0
 20
0
 30
0
 70
1
  0
VERTEX
  8
26 道路
 10
-426.535825
 20
214.996328
  0
VERTEX
  8
26 道路
 10
-430.636203
 20
211.356217
  0
VERTEX
  8
26 道路
 10
-433.365081
 20
214.485072
  0
VERTEX
  8
26 道路
 10
-429.241620
 20
218.077641
  0
SEQEND
  0
POLYLINE
  8
26 道路
 40
0.070556
 41
0.070556
 62
252
 66
1
 10
0
 20
0
 30
0
  0
VERTEX
  8
26 道路
 10
-434.355552
 20
215.620927
  0
VERTEX
  8
26 道路
 10
-433.826382
 20
215.014242
  0
VERTEX
  8
26 道路
 10
-429.704644
 20
218.604743
  0
VERTEX
  8
26 道路
 10
-431.805476
 20
220.997033
  0
VERTEX
  8
26 道路
 10
-434.355552
 20
219.048819
  0
SEQEND
  0
POLYLINE
  8
26 道路
 40
0.070556
 41
0.070556
 62
252
 66
1
 10
0
 20
0
 30
0
  0
VERTEX
  8
26 道路
 10
-358.753489
 20
157.824263
  0
VERTEX
  8
26 道路
 10
-356.165861
 20
160.027416
  0
VERTEX
  8
26 道路
 10
-354.399550
 20
157.824263
  0
SEQEND
  0
POLYLINE
  8
26 道路
 40
0.070556
 41
0.070556
 62
252
 66
1
 10
0
 20
0
 30
0
 70
1
  0
VERTEX
  8
26 道路
 10
-358.636699
 20
165.706347
  0
VERTEX
  8
26 道路
 10
-355.535749
 20
168.315679
  0
VERTEX
  8
26 道路
 10
-352.364519
 20
164.687970
  0
VERTEX
  8
26 道路
 10
-355.588460
 20
161.904316
  0
SEQEND
  0
POLYLINE
  8
26 道路
 40
0.070556
 41
0.070556
 62
252
 66
1
 10
0
 20
0
 30
0
 70
1
  0
VERTEX
  8
26 道路
 10
-356.823879
 20
160.848732
  0
VERTEX
  8
26 道路
 10
-359.215134
 20
158.813701
  0
VERTEX
  8
26 道路
 10
-362.477316
 20
162.474827
  0
VERTEX
  8
26 道路
 10
-359.880387
 20
164.660410
  0
SEQEND
  0
POLYLINE
  8
26 道路
 40
0.070556
 41
0.070556
 62
252
 66
1
 10
0
 20
0
 30
0
  0
VERTEX
  8
26 道路
 10
-360.375794
 20
157.824263
  0
VERTEX
  8
26 道路
 10
-359.876941
 20
158.249046
  0
VERTEX
  8
26 道路
 10
-363.142568
 20
161.914651
  0
VERTEX
  8
26 道路
 10
-366.320000
 20
159.241240
  0
VERTEX
  8
26 道路
 10
-365.072867
 20
157.824263
  0
SEQEND
  0
POLYLINE
  8
26 道路
 40
0.070556
 41
0.070556
 62
252
 66
1
 10
0
 20
0
 30
0
 70
1
  0
VERTEX
  8
26 道路
 10
-366.984218
 20
159.995721
  0
VERTEX
  8
26 道路
 10
-369.689324
 20
163.069454
  0
VERTEX
  8
26 道路
 10
-366.561502
 20
165.751823
  0
VERTEX
  8
26 道路
 10
-363.811954
 20
162.666376
  0
SEQEND
  0
POLYLINE
  8
26 道路
 40
0.070556
 41
0.070556
 62
252
 66
1
 10
0
 20
0
 30
0
 70
1
  0
VERTEX
  8
26 道路
 10
-371.472517
 20
165.067622
  0
VERTEX
  8
26 道路
 10
-374.617220
 20
168.547880
  0
VERTEX
  8
26 道路
 10
-371.496633
 20
171.290193
  0
VERTEX
  8
26 道路
 10
-368.343317
 20
167.751369
  0
SEQEND
  0
POLYLINE
  8
26 道路
 40
0.070556
 41
0.070556
 62
252
 66
1
 10
0
 20
0
 30
0
 70
1
  0
VERTEX
  8
26 道路
 10
-375.245954
 20
169.244482
  0
VERTEX
  8
26 道路
 10
-378.436477
 20
172.774350
  0
VERTEX
  8
26 道路
 10
-375.311066
 20
175.573163
  0
VERTEX
  8
26 道路
 10
-372.119510
 20
171.990241
  0
SEQEND
  0
POLYLINE
  8
26 道路
 40
0.070556
 41
0.070556
 62
252
 66
1
 10
0
 20
0
 30
0
 70
1
  0
VERTEX
  8
26 道路
 10
-379.438317
 20
173.883333
  0
VERTEX
  8
26 道路
 10
-381.382052
 20
176.032741
  0
VERTEX
  8
26 道路
 10
-378.246306
 20
178.866695
  0
VERTEX
  8
26 道路
 10
-376.306016
 20
176.689381
  0
SEQEND
  0
POLYLINE
  8
26 道路
 40
0.070556
 41
0.070556
 62
252
 66
1
 10
0
 20
0
 30
0
 70
1
  0
VERTEX
  8
26 道路
 10
-381.996661
 20
176.714186
  0
VERTEX
  8
26 道路
 10
-385.262632
 20
180.328113
  0
VERTEX
  8
26 道路
 10
-381.853344
 20
182.914707
  0
VERTEX
  8
26 道路
 10
-378.856781
 20
179.551584
  0
SEQEND
  0
POLYLINE
  8
26 道路
 40
0.070556
 41
0.070556
 62
252
 66
1
 10
0
 20
0
 30
0
 70
1
  0
VERTEX
  8
26 道路
 10
-386.575911
 20
181.781264
  0
VERTEX
  8
26 道路
 10
-387.875409
 20
183.220289
  0
VERTEX
  8
26 道路
 10
-384.634932
 20
186.038051
  0
VERTEX
  8
26 道路
 10
-383.154909
 20
184.376126
  0
SEQEND
  0
POLYLINE
  8
26 道路
 40
0.070556
 41
0.070556
 62
252
 66
1
 10
0
 20
0
 30
0
 70
1
  0
VERTEX
  8
26 道路
 10
-388.377018
 20
183.774609
  0
VERTEX
  8
26 道路
 10
-390.632881
 20
186.271630
  0
VERTEX
  8
26 道路
 10
-387.366220
 20
189.102827
  0
VERTEX
  8
26 道路
 10
-385.131717
 20
186.595126
  0
SEQEND
  0
POLYLINE
  8
26 道路
 40
0.070556
 41
0.070556
 62
252
 66
1
 10
0
 20
0
 30
0
 70
1
  0
VERTEX
  8
26 道路
 10
-391.166529
 20
186.861434
  0
VERTEX
  8
26 道路
 10
-394.502436
 20
190.553221
  0
VERTEX
  8
26 道路
 10
-388.915145
 20
195.293703
  0
VERTEX
  8
26 道路
 10
-384.312469
 20
192.804261
  0
SEQEND
  0
POLYLINE
  8
26 道路
 40
0.070556
 41
0.070556
 62
252
 66
1
 10
0
 20
0
 30
0
 70
1
  0
VERTEX
  8
26 道路
 10
-395.166310
 20
191.287031
  0
VERTEX
  8
26 道路
 10
-397.798724
 20
194.200911
  0
VERTEX
  8
26 道路
 10
-393.186401
 20
198.172442
  0
VERTEX
  8
26 道路
 10
-389.798129
 20
195.842165
  0
SEQEND
  0
POLYLINE
  8
26 道路
 40
0.070556
 41
0.070556
 62
252
 66
1
 10
0
 20
0
 30
0
 70
1
  0
VERTEX
  8
26 道路
 10
-395.930782
 20
203.139612
  0
VERTEX
  8
26 道路
 10
-403.608570
 20
211.509180
  0
VERTEX
  8
26 道路
 10
-402.459279
 20
212.637800
  0
VERTEX
  8
26 道路
 10
-396.371757
 20
205.917755
  0
VERTEX
  8
26 道路
 10
-391.109340
 20
200.947484
  0
VERTEX
  8
26 道路
 10
-392.608655
 20
199.856416
  0
SEQEND
  0
POLYLINE
  8
26 道路
 40
0.070556
 41
0.070556
 62
252
 66
1
 10
0
 20
0
 30
0
 70
1
  0
VERTEX
  8
26 道路
 10
-401.616259
 20
206.792126
  0
VERTEX
  8
26 道路
 10
-405.752122
 20
203.070021
  0
VERTEX
  8
26 道路
 10
-409.007069
 20
206.718400
  0
VERTEX
  8
26 道路
 10
-404.896355
 20
210.366779
  0
SEQEND
  0
POLYLINE
  8
26 道路
 40
0.070556
 41
0.070556
 62
252
 66
1
 10
0
 20
0
 30
0
 70
1
  0
VERTEX
  8
26 道路
 10
-410.754432
 20
208.635952
  0
VERTEX
  8
26 道路
 10
-413.146721
 20
211.208077
  0
VERTEX
  8
26 道路
 10
-408.379368
 20
215.498626
  0
VERTEX
  8
26 道路
 10
-406.378444
 20
212.538581
  0
SEQEND
  0
POLYLINE
  8
26 道路
 40
0.070556
 41
0.070556
 62
252
 66
1
 10
0
 20
0
 30
0
 70
1
  0
VERTEX
  8
26 道路
 10
-411.781766
 20
207.720929
  0
VERTEX
  8
26 道路
 10
-415.941400
 20
204.010538
  0
VERTEX
  8
26 道路
 10
-418.213800
 20
206.647431
  0
VERTEX
  8
26 道路
 10
-414.169232
 20
210.287542
  0
SEQEND
  0
POLYLINE
  8
26 道路
 40
0.070556
 41
0.070556
 62
252
 66
1
 10
0
 20
0
 30
0
 70
1
  0
VERTEX
  8
26 道路
 10
-418.895933
 20
207.439119
  0
VERTEX
  8
26 道路
 10
-420.797638
 20
209.647439
  0
VERTEX
  8
26 道路
 10
-416.826107
 20
213.143544
  0
VERTEX
  8
26 道路
 10
-414.880993
 20
211.052358
  0
SEQEND
  0
POLYLINE
  8
26 道路
 40
0.070556
 41
0.070556
 62
252
 66
1
 10
0
 20
0
 30
0
 70
1
  0
VERTEX
  8
26 道路
 10
-421.852533
 20
210.872522
  0
VERTEX
  8
26 道路
 10
-425.034443
 20
214.564999
  0
VERTEX
  8
26 道路
 10
-416.860558
 20
221.820416
  0
VERTEX
  8
26 道路
 10
-414.569210
 20
220.323168
  0
VERTEX
  8
26 道路
 10
-412.975155
 20
218.682603
  0
SEQEND
  0
POLYLINE
  8
26 道路
 40
0.070556
 41
0.070556
 62
252
 66
1
 10
0
 20
0
 30
0
 70
1
  0
VERTEX
  8
26 道路
 10
-417.508929
 20
223.009670
  0
VERTEX
  8
26 道路
 10
-424.072566
 20
228.155297
  0
VERTEX
  8
26 道路
 10
-423.482073
 20
229.026912
  0
VERTEX
  8
26 道路
 10
-416.677967
 20
223.746925
  0
SEQEND
  0
POLYLINE
  8
26 道路
 40
0.070556
 41
0.070556
 62
252
 66
1
 10
0
 20
0
 30
0
 70
1
  0
VERTEX
  8
26 道路
 10
-417.975398
 20
222.596256
  0
VERTEX
  8
26 道路
 10
-419.538103
 20
221.208563
  0
VERTEX
  8
26 道路
 10
-425.564991
 20
225.951111
  0
VERTEX
  8
26 道路
 10
-424.417078
 20
227.646109
  0
SEQEND
  0
POLYLINE
  8
26 道路
 40
0.070556
 41
0.070556
 62
252
 66
1
 10
0
 20
0
 30
0
 70
1
  0
VERTEX
  8
26 道路
 10
-423.935450
 20
223.630480
  0
VERTEX
  8
26 道路
 10
-429.068330
 20
219.159407
  0
VERTEX
  8
26 道路
 10
-431.132989
 20
221.510355
  0
VERTEX
  8
26 道路
 10
-426.113453
 20
225.344771
  0
SEQEND
  0
POLYLINE
  8
26 道路
 40
0.070556
 41
0.070556
 62
252
 66
1
 10
0
 20
0
 30
0
 70
1
  0
VERTEX
  8
26 道路
 10
-431.908830
 20
222.393683
  0
VERTEX
  8
26 道路
 10
-433.251736
 20
223.923315
  0
VERTEX
  8
26 道路
 10
-429.157559
 20
227.741194
  0
VERTEX
  8
26 道路
 10
-427.064995
 20
226.093739
  0
SEQEND
  0
POLYLINE
  8
26 道路
 40
0.070556
 41
0.070556
 62
252
 66
1
 10
0
 20
0
 30
0
  0
VERTEX
  8
26 道路
 10
-434.355552
 20
220.525396
  0
VERTEX
  8
26 道路
 10
-432.581316
 20
221.880361
  0
VERTEX
  8
26 道路
 10
-433.913888
 20
223.398280
  0
VERTEX
  8
26 道路
 10
-434.355552
 20
223.048600
  0
SEQEND
  0
POLYLINE
  8
26 道路
 40
0.070556
 41
0.070556
 62
252
 66
1
 10
0
 20
0
 30
0
  0
VERTEX
  8
26 道路
 10
-350.714652
 20
157.824263
  0
VERTEX
  8
26 道路
 10
-347.753574
 20
160.541427
  0
VERTEX
  8
26 道路
 10
-351.016100
 20
164.461282
  0
VERTEX
  8
26 道路
 10
-354.929753
 20
161.082311
  0
VERTEX
  8
26 道路
 10
-352.317321
 20
157.824263
  0
SEQEND
  0
POLYLINE
  8
26 道路
 40
0.070556
 41
0.070556
 62
252
 66
1
 10
0
 20
0
 30
0
 70
1
  0
VERTEX
  8
26 道路
 10
-350.451790
 20
164.948421
  0
VERTEX
  8
26 道路
 10
-345.359907
 20
169.344391
  0
VERTEX
  8
26 道路
 10
-342.279972
 20
165.565097
  0
VERTEX
  8
26 道路
 10
-347.204422
 20
161.045793
  0
SEQEND
  0
POLYLINE
  8
26 道路
 40
0.070556
 41
0.070556
 62
252
 66
1
 10
0
 20
0
 30
0
 70
1
  0
VERTEX
  8
26 道路
 10
-351.737508
 20
165.230232
  0
VERTEX
  8
26 道路
 10
-358.356611
 20
172.803288
  0
VERTEX
  8
26 道路
 10
-354.690662
 20
175.889424
  0
VERTEX
  8
26 道路
 10
-350.480729
 20
173.344172
  0
VERTEX
  8
26 道路
 10
-346.148149
 20
170.055463
  0
SEQEND
  0
POLYLINE
  8
26 道路
 40
0.070556
 41
0.070556
 62
252
 66
1
 10
0
 20
0
 30
0
 70
1
  0
VERTEX
  8
26 道路
 10
-356.197556
 20
169.072227
  0
VERTEX
  8
26 道路
 10
-359.265089
 20
166.490456
  0
VERTEX
  8
26 道路
 10
-361.921963
 20
169.803280
  0
VERTEX
  8
26 道路
 10
-358.992235
 20
172.269295
  0
SEQEND
  0
POLYLINE
  8
26 道路
 40
0.070556
 41
0.070556
 62
252
 66
1
 10
0
 20
0
 30
0
 70
1
  0
VERTEX
  8
26 道路
 10
-360.509120
 20
165.444518
  0
VERTEX
  8
26 道路
 10
-363.145669
 20
163.225863
  0
VERTEX
  8
26 道路
 10
-365.901762
 20
166.317511
  0
VERTEX
  8
26 道路
 10
-363.121553
 20
168.702221
  0
SEQEND
  0
POLYLINE
  8
26 道路
 40
0.070556
 41
0.070556
 62
252
 66
1
 10
0
 20
0
 30
0
 70
1
  0
VERTEX
  8
26 道路
 10
-365.788418
 20
169.943841
  0
VERTEX
  8
26 道路
 10
-367.683232
 20
168.317746
  0
VERTEX
  8
26 道路
 10
-370.843438
 20
171.864150
  0
VERTEX
  8
26 道路
 10
-368.112494
 20
174.265396
  0
VERTEX
  8
26 道路
 10
-365.640622
 20
171.011139
  0
SEQEND
  0
POLYLINE
  8
26 道路
 40
0.070556
 41
0.070556
 62
252
 66
1
 10
0
 20
0
 30
0
 70
1
  0
VERTEX
  8
26 道路
 10
-375.657645
 20
177.268160
  0
VERTEX
  8
26 道路
 10
-377.601380
 20
179.449609
  0
VERTEX
  8
26 道路
 10
-374.310949
 20
182.422745
  0
VERTEX
  8
26 道路
 10
-372.526034
 20
180.073175
  0
SEQEND
  0
POLYLINE
  8
26 道路
 40
0.070556
 41
0.070556
 62
252
 66
1
 10
0
 20
0
 30
0
 70
1
  0
VERTEX
  8
26 道路
 10
-378.212200
 20
180.134498
  0
VERTEX
  8
26 道路
 10
-381.158808
 20
183.441810
  0
VERTEX
  8
26 道路
 10
-377.305789
 20
186.363959
  0
VERTEX
  8
26 道路
 10
-374.868713
 20
183.155866
  0
SEQEND
  0
POLYLINE
  8
26 道路
 40
0.070556
 41
0.070556
 62
252
 66
1
 10
0
 20
0
 30
0
 70
1
  0
VERTEX
  8
26 道路
 10
-382.460374
 20
184.903229
  0
VERTEX
  8
26 道路
 10
-384.230475
 20
186.889684
  0
VERTEX
  8
26 道路
 10
-380.878376
 20
189.730527
  0
VERTEX
  8
26 道路
 10
-378.741370
 20
187.724780
  0
SEQEND
  0
POLYLINE
  8
26 道路
 40
0.070556
 41
0.070556
 62
252
 66
1
 10
0
 20
0
 30
0
 70
1
  0
VERTEX
  8
26 道路
 10
-384.692121
 20
187.408518
  0
VERTEX
  8
26 道路
 10
-386.709581
 20
189.671960
  0
VERTEX
  8
26 道路
 10
-383.646527
 20
192.328146
  0
VERTEX
  8
26 道路
 10
-381.387220
 20
190.208021
  0
SEQEND
  0
POLYLINE
  8
26 道路
 40
0.070556
 41
0.070556
 62
252
 66
1
 10
0
 20
0
 30
0
 70
1
  0
VERTEX
  8
26 道路
 10
-382.789727
 20
193.570455
  0
VERTEX
  8
26 道路
 10
-388.169277
 20
196.480890
  0
VERTEX
  8
26 道路
 10
-391.688464
 20
199.071618
  0
VERTEX
  8
26 道路
 10
-390.239104
 20
200.125824
  0
VERTEX
  8
26 道路
 10
-390.021717
 20
199.920495
  0
VERTEX
  8
26 道路
 10
-382.568895
 20
194.055527
  0
VERTEX
  8
26 道路
 10
-382.392505
 20
193.835040
  0
SEQEND
  0
POLYLINE
  8
26 道路
 40
0.070556
 41
0.070556
 62
252
 66
1
 10
0
 20
0
 30
0
 70
1
  0
VERTEX
  8
26 道路
 10
-395.313417
 20
206.799705
  0
VERTEX
  8
26 道路
 10
-401.439869
 20
213.563159
  0
VERTEX
  8
26 道路
 10
-399.311475
 20
215.496559
  0
VERTEX
  8
26 道路
 10
-393.578800
 20
209.033519
  0
VERTEX
  8
26 道路
 10
-386.978300
 20
203.423490
  0
VERTEX
  8
26 道路
 10
-389.712345
 20
201.509383
  0
SEQEND
  0
POLYLINE
  8
26 道路
 40
0.070556
 41
0.070556
 62
252
 66
1
 10
0
 20
0
 30
0
 70
1
  0
VERTEX
  8
26 道路
 10
-380.790525
 20
227.337427
  0
VERTEX
  8
26 道路
 10
-381.841286
 20
225.884965
  0
VERTEX
  8
26 道路
 10
-388.767005
 20
230.589617
  0
VERTEX
  8
26 道路
 10
-387.826833
 20
232.080319
  0
SEQEND
  0
POLYLINE
  8
26 道路
 40
0.070556
 41
0.070556
 62
252
 66
1
 10
0
 20
0
 30
0
 70
1
  0
VERTEX
  8
26 道路
 10
-387.422720
 20
232.721456
  0
VERTEX
  8
26 道路
 10
-386.144582
 20
234.748563
  0
VERTEX
  8
26 道路
 10
-378.967025
 20
229.857874
  0
VERTEX
  8
26 道路
 10
-380.345761
 20
227.952724
  0
SEQEND
  0
POLYLINE
  8
26 道路
 40
0.070556
 41
0.070556
 62
252
 66
1
 10
0
 20
0
 30
0
 70
1
  0
VERTEX
  8
26 道路
 10
-382.573373
 20
224.873479
  0
VERTEX
  8
26 道路
 10
-383.818439
 20
223.151609
  0
VERTEX
  8
26 道路
 10
-390.563289
 20
227.739816
  0
VERTEX
  8
26 道路
 10
-389.432602
 20
229.532655
  0
SEQEND
  0
POLYLINE
  8
26 道路
 40
0.070556
 41
0.070556
 62
252
 66
1
 10
0
 20
0
 30
0
 70
1
  0
VERTEX
  8
26 道路
 10
-384.177420
 20
222.655168
  0
VERTEX
  8
26 道路
 10
-385.222324
 20
221.211319
  0
VERTEX
  8
26 道路
 10
-391.099349
 20
225.309631
  0
VERTEX
  8
26 道路
 10
-391.381849
 20
226.441696
  0
VERTEX
  8
26 道路
 10
-390.890231
 20
227.220982
  0
SEQEND
  0
POLYLINE
  8
26 道路
 40
0.070556
 41
0.070556
 62
252
 66
1
 10
0
 20
0
 30
0
 70
1
  0
VERTEX
  8
26 道路
 10
-386.852898
 20
219.048475
  0
VERTEX
  8
26 道路
 10
-387.969460
 20
217.648379
  0
VERTEX
  8
26 道路
 10
-394.321223
 20
222.031946
  0
VERTEX
  8
26 道路
 10
-393.705925
 20
222.893225
  0
VERTEX
  8
26 道路
 10
-392.578683
 20
223.041365
  0
SEQEND
  0
POLYLINE
  8
26 道路
 40
0.070556
 41
0.070556
 62
252
 66
1
 10
0
 20
0
 30
0
 70
1
  0
VERTEX
  8
26 道路
 10
-388.475204
 20
217.014477
  0
VERTEX
  8
26 道路
 10
-389.689263
 20
215.491736
  0
VERTEX
  8
26 道路
 10
-395.967989
 20
219.727163
  0
VERTEX
  8
26 道路
 10
-394.791826
 20
221.373929
  0
SEQEND
  0
POLYLINE
  8
26 道路
 40
0.070556
 41
0.070556
 62
252
 66
1
 10
0
 20
0
 30
0
 70
1
  0
VERTEX
  8
26 道路
 10
-390.285957
 20
214.744145
  0
VERTEX
  8
26 道路
 10
-393.244279
 20
211.035132
  0
VERTEX
  8
26 道路
 10
-398.229708
 20
216.563856
  0
VERTEX
  8
26 道路
 10
-396.524031
 20
218.950978
  0
SEQEND
  0
POLYLINE
  8
26 道路
 40
0.070556
 41
0.070556
 62
252
 66
1
 10
0
 20
0
 30
0
 70
1
  0
VERTEX
  8
26 道路
 10
-396.442037
 20
223.496121
  0
VERTEX
  8
26 道路
 10
-401.389914
 20
226.910921
  0
VERTEX
  8
26 道路
 10
-400.791153
 20
227.712944
  0
VERTEX
  8
26 道路
 10
-399.501301
 20
227.965127
  0
VERTEX
  8
26 道路
 10
-396.155403
 20
225.568703
  0
VERTEX
  8
26 道路
 10
-395.956276
 20
224.174120
  0
SEQEND
  0
POLYLINE
  8
26 道路
 40
0.070556
 41
0.070556
 62
252
 66
1
 10
0
 20
0
 30
0
 70
1
  0
VERTEX
  8
26 道路
 10
-396.913329
 20
222.838103
  0
VERTEX
  8
26 道路
 10
-398.108096
 20
221.169978
  0
VERTEX
  8
26 道路
 10
-403.140034
 20
224.564796
  0
VERTEX
  8
26 道路
 10
-401.874298
 20
226.261861
  0
SEQEND
  0
POLYLINE
  8
26 道路
 40
0.070556
 41
0.070556
 62
252
 66
1
 10
0
 20
0
 30
0
 70
1
  0
VERTEX
  8
26 道路
 10
-398.664138
 20
220.394137
  0
VERTEX
  8
26 道路
 10
-399.907825
 20
218.658487
  0
VERTEX
  8
26 道路
 10
-403.820100
 20
223.654596
  0
VERTEX
  8
26 道路
 10
-403.710890
 20
223.799291
  0
SEQEND
  0
POLYLINE
  8
26 道路
 40
0.070556
 41
0.070556
 62
252
 66
1
 10
0
 20
0
 30
0
 70
1
  0
VERTEX
  8
26 道路
 10
-392.451902
 20
209.708762
  0
VERTEX
  8
26 道路
 10
-391.259203
 20
211.204632
  0
VERTEX
  8
26 道路
 10
-384.329005
 20
206.807973
  0
VERTEX
  8
26 道路
 10
-386.156295
 20
204.254452
  0
SEQEND
  0
POLYLINE
  8
26 道路
 40
0.070556
 41
0.070556
 62
252
 66
1
 10
0
 20
0
 30
0
 70
1
  0
VERTEX
  8
26 道路
 10
-390.801002
 20
211.779277
  0
VERTEX
  8
26 道路
 10
-389.083267
 20
213.932476
  0
VERTEX
  8
26 道路
 10
-382.437636
 20
209.451067
  0
VERTEX
  8
26 道路
 10
-383.903189
 20
207.402600
  0
SEQEND
  0
POLYLINE
  8
26 道路
 40
0.070556
 41
0.070556
 62
252
 66
1
 10
0
 20
0
 30
0
 70
1
  0
VERTEX
  8
26 道路
 10
-388.486573
 20
214.680755
  0
VERTEX
  8
26 道路
 10
-387.282160
 20
216.190405
  0
VERTEX
  8
26 道路
 10
-380.810162
 20
211.724844
  0
VERTEX
  8
26 道路
 10
-381.882283
 20
210.226218
  0
SEQEND
  0
POLYLINE
  8
26 道路
 40
0.070556
 41
0.070556
 62
252
 66
1
 10
0
 20
0
 30
0
 70
1
  0
VERTEX
  8
26 道路
 10
-386.776416
 20
216.824307
  0
VERTEX
  8
26 道路
 10
-385.664333
 20
218.219579
  0
VERTEX
  8
26 道路
 10
-379.324972
 20
213.798116
  0
VERTEX
  8
26 道路
 10
-380.339559
 20
212.381484
  0
SEQEND
  0
POLYLINE
  8
26 道路
 40
0.070556
 41
0.070556
 62
252
 66
1
 10
0
 20
0
 30
0
 70
1
  0
VERTEX
  8
26 道路
 10
-384.036170
 20
220.383802
  0
VERTEX
  8
26 道路
 10
-382.981964
 20
221.841087
  0
VERTEX
  8
26 道路
 10
-374.316806
 20
215.947180
  0
VERTEX
  8
26 道路
 10
-375.417176
 20
214.372762
  0
SEQEND
  0
POLYLINE
  8
26 道路
 40
0.070556
 41
0.070556
 62
252
 66
1
 10
0
 20
0
 30
0
 70
1
  0
VERTEX
  8
26 道路
 10
-382.622983
 20
222.337872
  0
VERTEX
  8
26 道路
 10
-381.376884
 20
224.060087
  0
VERTEX
  8
26 道路
 10
-372.746521
 20
218.195464
  0
VERTEX
  8
26 道路
 10
-373.966093
 20
216.449478
  0
SEQEND
  0
POLYLINE
  8
26 道路
 40
0.070556
 41
0.070556
 62
252
 66
1
 10
0
 20
0
 30
0
 70
1
  0
VERTEX
  8
26 道路
 10
-380.644797
 20
225.071573
  0
VERTEX
  8
26 道路
 10
-379.590935
 20
226.529547
  0
VERTEX
  8
26 道路
 10
-370.979176
 20
220.724180
  0
VERTEX
  8
26 道路
 10
-372.030626
 20
219.218663
  0
SEQEND
  0
POLYLINE
  8
26 道路
 40
0.070556
 41
0.070556
 62
252
 66
1
 10
0
 20
0
 30
0
 70
1
  0
VERTEX
  8
26 道路
 10
-379.146171
 20
227.143811
  0
VERTEX
  8
26 道路
 10
-377.771569
 20
229.043449
  0
VERTEX
  8
26 道路
 10
-369.231813
 20
223.225335
  0
VERTEX
  8
26 道路
 10
-370.544402
 20
221.346368
  0
SEQEND
  0
POLYLINE
  8
26 道路
 40
0.070556
 41
0.070556
 62
252
 66
1
 10
0
 20
0
 30
0
 70
1
  0
VERTEX
  8
26 道路
 10
-369.780275
 20
219.917333
  0
VERTEX
  8
26 道路
 10
-361.471342
 20
214.317640
  0
VERTEX
  8
26 道路
 10
-362.486962
 20
212.734264
  0
VERTEX
  8
26 道路
 10
-370.835170
 20
218.406994
  0
SEQEND
  0
POLYLINE
  8
26 道路
 40
0.070556
 41
0.070556
 62
252
 66
1
 10
0
 20
0
 30
0
 70
1
  0
VERTEX
  8
26 道路
 10
-369.346191
 20
220.538832
  0
VERTEX
  8
26 道路
 10
-368.037735
 20
222.410220
  0
VERTEX
  8
26 道路
 10
-359.855926
 20
216.835331
  0
VERTEX
  8
26 道路
 10
-361.061373
 20
214.954986
  0
SEQEND
  0
POLYLINE
  8
26 道路
 40
0.070556
 41
0.070556
 62
252
 66
1
 10
0
 20
0
 30
0
 70
1
  0
VERTEX
  8
26 道路
 10
-368.404984
 20
224.408388
  0
VERTEX
  8
26 道路
 10
-376.925448
 20
230.213410
  0
VERTEX
  8
26 道路
 10
-375.404774
 20
232.315621
  0
VERTEX
  8
26 道路
 10
-366.940121
 20
226.503708
  0
SEQEND
  0
POLYLINE
  8
26 道路
 40
0.070556
 41
0.070556
 62
252
 66
1
 10
0
 20
0
 30
0
 70
1
  0
VERTEX
  8
26 道路
 10
-378.120215
 20
231.027836
  0
VERTEX
  8
26 道路
 10
-385.373565
 20
235.970890
  0
VERTEX
  8
26 道路
 10
-383.970713
 20
238.196436
  0
VERTEX
  8
26 道路
 10
-376.597473
 20
233.134181
  0
SEQEND
  0
POLYLINE
  8
26 道路
 40
0.070556
 41
0.070556
 62
252
 66
1
 10
0
 20
0
 30
0
 70
1
  0
VERTEX
  8
26 道路
 10
-385.740814
 20
240.211140
  0
VERTEX
  8
26 道路
 10
-392.998298
 20
245.194158
  0
VERTEX
  8
26 道路
 10
-391.850040
 20
247.693935
  0
VERTEX
  8
26 道路
 10
-384.300066
 20
242.495942
  0
SEQEND
  0
POLYLINE
  8
26 道路
 40
0.070556
 41
0.070556
 62
252
 66
1
 10
0
 20
0
 30
0
 70
1
  0
VERTEX
  8
26 道路
 10
-386.092216
 20
239.653720
  0
VERTEX
  8
26 道路
 10
-387.489556
 20
237.436443
  0
VERTEX
  8
26 道路
 10
-394.328113
 20
242.299570
  0
VERTEX
  8
26 道路
 10
-393.277353
 20
244.586439
  0
SEQEND
  0
POLYLINE
  8
26 道路
 40
0.070556
 41
0.070556
 62
252
 66
1
 10
0
 20
0
 30
0
 70
1
  0
VERTEX
  8
26 道路
 10
-388.259195
 20
236.215493
  0
VERTEX
  8
26 道路
 10
-389.555592
 20
234.159448
  0
VERTEX
  8
26 道路
 10
-396.054806
 20
238.538881
  0
VERTEX
  8
26 道路
 10
-394.918606
 20
241.013853
  0
SEQEND
  0
POLYLINE
  8
26 道路
 40
0.070556
 41
0.070556
 62
252
 66
1
 10
0
 20
0
 30
0
 70
1
  0
VERTEX
  8
26 道路
 10
-389.960394
 20
233.517278
  0
VERTEX
  8
26 道路
 10
-390.894709
 20
232.035188
  0
VERTEX
  8
26 道路
 10
-397.104189
 20
236.254768
  0
VERTEX
  8
26 道路
 10
-396.375891
 20
237.842278
  0
SEQEND
  0
POLYLINE
  8
26 道路
 40
0.070556
 41
0.070556
 62
252
 66
1
 10
0
 20
0
 30
0
 70
1
  0
VERTEX
  8
26 道路
 10
-391.560995
 20
230.978226
  0
VERTEX
  8
26 道路
 10
-392.690305
 20
229.187454
  0
VERTEX
  8
26 道路
 10
-398.527022
 20
233.156918
  0
VERTEX
  8
26 道路
 10
-397.632670
 20
235.104099
  0
SEQEND
  0
POLYLINE
  8
26 道路
 40
0.070556
 41
0.070556
 62
252
 66
1
 10
0
 20
0
 30
0
 70
1
  0
VERTEX
  8
26 道路
 10
-393.017246
 20
228.667931
  0
VERTEX
  8
26 道路
 10
-393.613940
 20
227.723280
  0
VERTEX
  8
26 道路
 10
-394.479009
 20
227.684694
  0
VERTEX
  8
26 道路
 10
-398.759223
 20
230.641983
  0
VERTEX
  8
26 道路
 10
-399.091332
 20
231.927356
  0
VERTEX
  8
26 道路
 10
-398.786095
 20
232.593297
  0
SEQEND
  0
POLYLINE
  8
26 道路
 40
0.070556
 41
0.070556
 62
252
 66
1
 10
0
 20
0
 30
0
 70
1
  0
VERTEX
  8
26 道路
 10
-400.460422
 20
233.071480
  0
VERTEX
  8
26 道路
 10
-401.662768
 20
232.741437
  0
VERTEX
  8
26 道路
 10
-402.662541
 20
233.475247
  0
VERTEX
  8
26 道路
 10
-400.215474
 20
236.857663
  0
VERTEX
  8
26 道路
 10
-399.076174
 20
236.084579
  0
SEQEND
  0
POLYLINE
  8
26 道路
 40
0.070556
 41
0.070556
 62
252
 66
1
 10
0
 20
0
 30
0
 70
1
  0
VERTEX
  8
26 道路
 10
-403.175174
 20
233.850765
  0
VERTEX
  8
26 道路
 10
-406.392914
 20
236.210670
  0
VERTEX
  8
26 道路
 10
-403.779448
 20
239.279581
  0
VERTEX
  8
26 道路
 10
-400.740854
 20
237.215956
  0
SEQEND
  0
POLYLINE
  8
26 道路
 40
0.070556
 41
0.070556
 62
252
 66
1
 10
0
 20
0
 30
0
 70
1
  0
VERTEX
  8
26 道路
 10
-403.709856
 20
230.977537
  0
VERTEX
  8
26 道路
 10
-403.445271
 20
229.759344
  0
VERTEX
  8
26 道路
 10
-406.101457
 20
226.197782
  0
VERTEX
  8
26 道路
 10
-406.738114
 20
226.243946
  0
VERTEX
  8
26 道路
 10
-411.054157
 20
232.272212
  0
VERTEX
  8
26 道路
 10
-408.439658
 20
234.364088
  0
SEQEND
  0
POLYLINE
  8
26 道路
 40
0.070556
 41
0.070556
 62
252
 66
1
 10
0
 20
0
 30
0
 70
1
  0
VERTEX
  8
26 道路
 10
-404.943208
 20
222.612793
  0
VERTEX
  8
26 道路
 10
-400.930336
 20
217.488525
  0
VERTEX
  8
26 道路
 10
-402.983281
 20
215.624717
  0
VERTEX
  8
26 道路
 10
-406.795992
 20
221.321563
  0
SEQEND
  0
POLYLINE
  8
26 道路
 40
0.070556
 41
0.070556
 62
252
 66
1
 10
0
 20
0
 30
0
 70
1
  0
VERTEX
  8
26 道路
 10
-404.008893
 20
214.691779
  0
VERTEX
  8
26 道路
 10
-405.261537
 20
213.553513
  0
VERTEX
  8
26 道路
 10
-409.306794
 20
219.535614
  0
VERTEX
  8
26 道路
 10
-407.866046
 20
220.456838
  0
SEQEND
  0
POLYLINE
  8
26 道路
 40
0.070556
 41
0.070556
 62
252
 66
1
 10
0
 20
0
 30
0
 70
1
  0
VERTEX
  8
26 道路
 10
-408.970206
 20
216.372308
  0
VERTEX
  8
26 道路
 10
-413.858483
 20
211.972893
  0
VERTEX
  8
26 道路
 10
-415.792571
 20
214.051677
  0
VERTEX
  8
26 道路
 10
-410.786127
 20
218.457292
  0
VERTEX
  8
26 道路
 10
-409.724342
 20
217.488525
  0
SEQEND
  0
POLYLINE
  8
26 道路
 40
0.070556
 41
0.070556
 62
252
 66
1
 10
0
 20
0
 30
0
 70
1
  0
VERTEX
  8
26 道路
 10
-415.509383
 20
224.785284
  0
VERTEX
  8
26 道路
 10
-423.149275
 20
230.734312
  0
VERTEX
  8
26 道路
 10
-427.497013
 20
233.444930
  0
VERTEX
  8
26 道路
 10
-422.884690
 20
236.927944
  0
VERTEX
  8
26 道路
 10
-422.653522
 20
236.609615
  0
VERTEX
  8
26 道路
 10
-414.977801
 20
225.256576
  0
SEQEND
  0
POLYLINE
  8
26 道路
 40
0.070556
 41
0.070556
 62
252
 66
1
 10
0
 20
0
 30
0
 70
1
  0
VERTEX
  8
26 道路
 10
-424.452218
 20
229.693198
  0
VERTEX
  8
26 道路
 10
-426.492416
 20
226.680787
  0
VERTEX
  8
26 道路
 10
-431.332806
 20
230.490398
  0
VERTEX
  8
26 道路
 10
-428.792032
 20
232.455493
  0
SEQEND
  0
POLYLINE
  8
26 道路
 40
0.070556
 41
0.070556
 62
252
 66
1
 10
0
 20
0
 30
0
 70
1
  0
VERTEX
  8
26 道路
 10
-431.819257
 20
231.295866
  0
VERTEX
  8
26 道路
 10
-433.474980
 20
235.310806
  0
VERTEX
  8
26 道路
 10
-429.637119
 20
232.983285
  0
SEQEND
  0
POLYLINE
  8
26 道路
 40
0.070556
 41
0.070556
 62
252
 66
1
 10
0
 20
0
 30
0
  0
VERTEX
  8
26 道路
 10
-434.355552
 20
225.180094
  0
VERTEX
  8
26 道路
 10
-433.715449
 20
224.451107
  0
VERTEX
  8
26 道路
 10
-429.715668
 20
228.180102
  0
VERTEX
  8
26 道路
 10
-431.997714
 20
229.976386
  0
VERTEX
  8
26 道路
 10
-434.355552
 20
228.152541
  0
SEQEND
  0
POLYLINE
  8
26 道路
 40
0.070556
 41
0.070556
 62
252
 66
1
 10
0
 20
0
 30
0
  0
VERTEX
  8
26 道路
 10
-284.247662
 20
158.517077
  0
VERTEX
  8
26 道路
 10
-284.817484
 20
158.155339
  0
VERTEX
  8
26 道路
 10
-284.766496
 20
157.824263
  0
SEQEND
  0
POLYLINE
  8
26 道路
 40
0.070556
 41
0.070556
 62
252
 66
1
 10
0
 20
0
 30
0
  0
VERTEX
  8
26 道路
 10
-349.452706
 20
157.824263
  0
VERTEX
  8
26 道路
 10
-347.207178
 20
159.885477
  0
VERTEX
  8
26 道路
 10
-345.492199
 20
157.824263
  0
SEQEND
  0
POLYLINE
  8
26 道路
 40
0.070556
 41
0.070556
 62
252
 66
1
 10
0
 20
0
 30
0
 70
1
  0
VERTEX
  8
26 道路
 10
-353.205816
 20
181.611764
  0
VERTEX
  8
26 道路
 10
-353.773227
 20
180.517595
  0
VERTEX
  8
26 道路
 10
-355.007957
 20
179.988425
  0
VERTEX
  8
26 道路
 10
-356.329849
 20
178.434677
  0
VERTEX
  8
26 道路
 10
-358.645312
 20
176.450290
  0
VERTEX
  8
26 道路
 10
-362.731566
 20
173.455794
  0
VERTEX
  8
26 道路
 10
-364.123048
 20
173.708665
  0
VERTEX
  8
26 道路
 10
-369.072304
 20
180.222004
  0
VERTEX
  8
26 道路
 10
-366.458838
 20
182.374513
  0
VERTEX
  8
26 道路
 10
-371.840111
 20
184.912875
  0
VERTEX
  8
26 道路
 10
-372.450930
 20
184.668272
  0
VERTEX
  8
26 道路
 10
-375.138466
 20
188.206063
  0
VERTEX
  8
26 道路
 10
-372.151894
 20
192.866273
  0
VERTEX
  8
26 道路
 10
-352.806183
 20
183.114180
  0
VERTEX
  8
26 道路
 10
-353.693990
 20
182.168495
  0
SEQEND
  0
POLYLINE
  8
26 道路
 40
0.070556
 41
0.070556
 62
252
 66
1
 10
0
 20
0
 30
0
 70
1
  0
VERTEX
  8
26 道路
 10
-376.933028
 20
190.219734
  0
VERTEX
  8
26 道路
 10
-381.907777
 20
195.510745
  0
VERTEX
  8
26 道路
 10
-388.584414
 20
200.518567
  0
VERTEX
  8
26 道路
 10
-385.405949
 20
202.742735
  0
VERTEX
  8
26 道路
 10
-378.107813
 20
212.949239
  0
VERTEX
  8
26 道路
 10
-367.221242
 20
205.356201
  0
SEQEND
  0
POLYLINE
  8
26 道路
 40
0.070556
 41
0.070556
 62
252
 66
1
 10
0
 20
0
 30
0
 70
1
  0
VERTEX
  8
26 道路
 10
-364.858581
 20
204.248251
  0
VERTEX
  8
26 道路
 10
-364.682191
 20
204.125605
  0
VERTEX
  8
26 道路
 10
-365.285775
 20
202.649028
  0
VERTEX
  8
26 道路
 10
-369.878806
 20
195.889708
  0
VERTEX
  8
26 道路
 10
-370.330460
 20
195.709184
  0
SEQEND
  0
POLYLINE
  8
26 道路
 40
0.070556
 41
0.070556
 62
252
 66
1
 10
0
 20
0
 30
0
 70
1
  0
VERTEX
  8
26 道路
 10
-365.757756
 20
207.636179
  0
VERTEX
  8
26 道路
 10
-374.231711
 20
213.545933
  0
VERTEX
  8
26 道路
 10
-371.551066
 20
217.383105
  0
VERTEX
  8
26 道路
 10
-363.160827
 20
211.683503
  0
SEQEND
  0
POLYLINE
  8
26 道路
 40
0.070556
 41
0.070556
 62
252
 66
1
 10
0
 20
0
 30
0
 70
1
  0
VERTEX
  8
26 道路
 10
-354.283794
 20
225.519094
  0
VERTEX
  8
26 道路
 10
-355.373484
 20
223.819962
  0
VERTEX
  8
26 道路
 10
-363.259357
 20
229.249467
  0
VERTEX
  8
26 道路
 10
-362.161743
 20
230.819751
  0
SEQEND
  0
POLYLINE
  8
26 道路
 40
0.070556
 41
0.070556
 62
252
 66
1
 10
0
 20
0
 30
0
 70
1
  0
VERTEX
  8
26 道路
 10
-361.742128
 20
231.421613
  0
VERTEX
  8
26 道路
 10
-360.638312
 20
232.999821
  0
VERTEX
  8
26 道路
 10
-352.813073
 20
227.811475
  0
VERTEX
  8
26 道路
 10
-353.887261
 20
226.136459
  0
SEQEND
  0
POLYLINE
  8
26 道路
 40
0.070556
 41
0.070556
 62
252
 66
1
 10
0
 20
0
 30
0
 70
1
  0
VERTEX
  8
26 道路
 10
-362.941029
 20
232.227426
  0
VERTEX
  8
26 道路
 10
-371.367096
 20
237.896711
  0
VERTEX
  8
26 道路
 10
-370.283607
 20
239.394648
  0
VERTEX
  8
26 道路
 10
-361.843070
 20
233.799088
  0
SEQEND
  0
POLYLINE
  8
26 道路
 40
0.070556
 41
0.070556
 62
252
 66
1
 10
0
 20
0
 30
0
 70
1
  0
VERTEX
  8
26 道路
 10
-363.360644
 20
231.627286
  0
VERTEX
  8
26 道路
 10
-364.449301
 20
230.069404
  0
VERTEX
  8
26 道路
 10
-372.847119
 20
235.851000
  0
VERTEX
  8
26 道路
 10
-371.797047
 20
237.302772
  0
SEQEND
  0
POLYLINE
  8
26 道路
 40
0.070556
 41
0.070556
 62
252
 66
1
 10
0
 20
0
 30
0
 70
1
  0
VERTEX
  8
26 道路
 10
-365.034971
 20
229.230863
  0
VERTEX
  8
26 道路
 10
-366.563225
 20
227.043903
  0
VERTEX
  8
26 道路
 10
-375.018231
 20
232.849614
  0
VERTEX
  8
26 道路
 10
-373.445880
 20
235.022794
  0
SEQEND
  0
POLYLINE
  8
26 道路
 40
0.070556
 41
0.070556
 62
252
 66
1
 10
0
 20
0
 30
0
 70
1
  0
VERTEX
  8
26 道路
 10
-376.210931
 20
233.667829
  0
VERTEX
  8
26 道路
 10
-383.618622
 20
238.753856
  0
VERTEX
  8
26 道路
 10
-382.179941
 20
241.036590
  0
VERTEX
  8
26 道路
 10
-374.637546
 20
235.843421
  0
SEQEND
  0
POLYLINE
  8
26 道路
 40
0.070556
 41
0.070556
 62
252
 66
1
 10
0
 20
0
 30
0
 70
1
  0
VERTEX
  8
26 道路
 10
-383.755049
 20
243.360667
  0
VERTEX
  8
26 道路
 10
-391.387361
 20
248.615848
  0
VERTEX
  8
26 道路
 10
-389.427090
 20
252.088526
  0
VERTEX
  8
26 道路
 10
-381.547418
 20
246.862973
  0
SEQEND
  0
POLYLINE
  8
26 道路
 40
0.070556
 41
0.070556
 62
252
 66
1
 10
0
 20
0
 30
0
 70
1
  0
VERTEX
  8
26 道路
 10
-392.815018
 20
249.599085
  0
VERTEX
  8
26 道路
 10
-395.832940
 20
251.676490
  0
VERTEX
  8
26 道路
 10
-393.917455
 20
255.065108
  0
VERTEX
  8
26 道路
 10
-390.869905
 20
253.044891
  0
SEQEND
  0
POLYLINE
  8
26 道路
 40
0.070556
 41
0.070556
 62
252
 66
1
 10
0
 20
0
 30
0
 70
1
  0
VERTEX
  8
26 道路
 10
-393.289755
 20
248.686129
  0
VERTEX
  8
26 道路
 10
-394.407351
 20
246.252498
  0
VERTEX
  8
26 道路
 10
-397.059402
 20
248.430501
  0
VERTEX
  8
26 道路
 10
-395.950763
 20
250.517553
  0
SEQEND
  0
POLYLINE
  8
26 道路
 40
0.070556
 41
0.070556
 62
252
 66
1
 10
0
 20
0
 30
0
 70
1
  0
VERTEX
  8
26 道路
 10
-394.685027
 20
245.646846
  0
VERTEX
  8
26 道路
 10
-395.725453
 20
243.381337
  0
VERTEX
  8
26 道路
 10
-398.502906
 20
245.712993
  0
VERTEX
  8
26 道路
 10
-397.368085
 20
247.849654
  0
SEQEND
  0
POLYLINE
  8
26 道路
 40
0.070556
 41
0.070556
 62
252
 66
1
 10
0
 20
0
 30
0
 70
1
  0
VERTEX
  8
26 道路
 10
-396.311467
 20
242.105266
  0
VERTEX
  8
26 道路
 10
-397.423896
 20
239.683348
  0
VERTEX
  8
26 道路
 10
-400.685044
 20
242.912112
  0
VERTEX
  8
26 道路
 10
-399.261521
 20
244.582994
  0
SEQEND
  0
POLYLINE
  8
26 道路
 40
0.070556
 41
0.070556
 62
252
 66
1
 10
0
 20
0
 30
0
 70
1
  0
VERTEX
  8
26 道路
 10
-397.756694
 20
238.958496
  0
VERTEX
  8
26 道路
 10
-398.548382
 20
237.234559
  0
VERTEX
  8
26 道路
 10
-402.965022
 20
240.235945
  0
VERTEX
  8
26 道路
 10
-401.172183
 20
242.340223
  0
SEQEND
  0
POLYLINE
  8
26 道路
 40
0.070556
 41
0.070556
 62
252
 66
1
 10
0
 20
0
 30
0
 70
1
  0
VERTEX
  8
26 道路
 10
-403.779448
 20
241.020743
  0
VERTEX
  8
26 道路
 10
-407.368571
 20
245.352633
  0
VERTEX
  8
26 道路
 10
-405.544726
 20
246.669357
  0
VERTEX
  8
26 道路
 10
-401.976962
 20
243.136734
  0
SEQEND
  0
POLYLINE
  8
26 道路
 40
0.070556
 41
0.070556
 62
252
 66
1
 10
0
 20
0
 30
0
 70
1
  0
VERTEX
  8
26 道路
 10
-404.589050
 20
240.070580
  0
VERTEX
  8
26 道路
 10
-407.306214
 20
236.880401
  0
VERTEX
  8
26 道路
 10
-407.337220
 20
236.903828
  0
VERTEX
  8
26 道路
 10
-411.303584
 20
242.512479
  0
VERTEX
  8
26 道路
 10
-408.368344
 20
244.630537
  0
SEQEND
  0
POLYLINE
  8
26 道路
 40
0.070556
 41
0.070556
 62
252
 66
1
 10
0
 20
0
 30
0
 70
1
  0
VERTEX
  8
26 道路
 10
-412.032571
 20
243.543258
  0
VERTEX
  8
26 道路
 10
-415.121807
 20
247.910977
  0
VERTEX
  8
26 道路
 10
-412.587234
 20
249.721731
  0
VERTEX
  8
26 道路
 10
-409.176568
 20
245.605505
  0
SEQEND
  0
POLYLINE
  8
26 道路
 40
0.070556
 41
0.070556
 62
252
 66
1
 10
0
 20
0
 30
0
 70
1
  0
VERTEX
  8
26 道路
 10
-409.211364
 20
235.157153
  0
VERTEX
  8
26 道路
 10
-411.696327
 20
233.169321
  0
VERTEX
  8
26 道路
 10
-415.972407
 20
239.141776
  0
VERTEX
  8
26 道路
 10
-413.361697
 20
241.026255
  0
SEQEND
  0
POLYLINE
  8
26 道路
 40
0.070556
 41
0.070556
 62
252
 66
1
 10
0
 20
0
 30
0
 70
1
  0
VERTEX
  8
26 道路
 10
-406.544499
 20
223.972236
  0
VERTEX
  8
26 道路
 10
-407.924613
 20
223.009670
  0
VERTEX
  8
26 道路
 10
-423.573024
 20
246.397882
  0
VERTEX
  8
26 道路
 10
-422.474376
 20
247.470002
  0
VERTEX
  8
26 道路
 10
-421.225521
 20
244.480330
  0
SEQEND
  0
POLYLINE
  8
26 道路
 40
0.070556
 41
0.070556
 62
252
 66
1
 10
0
 20
0
 30
0
 70
1
  0
VERTEX
  8
26 道路
 10
-409.003968
 20
222.158037
  0
VERTEX
  8
26 道路
 10
-410.457463
 20
221.237847
  0
VERTEX
  8
26 道路
 10
-421.507332
 20
237.579760
  0
VERTEX
  8
26 道路
 10
-426.107252
 20
243.924288
  0
VERTEX
  8
26 道路
 10
-424.570385
 20
245.424292
  0
SEQEND
  0
POLYLINE
  8
26 道路
 40
0.070556
 41
0.070556
 62
252
 66
1
 10
0
 20
0
 30
0
 70
1
  0
VERTEX
  8
26 道路
 10
-426.775260
 20
245.269950
  0
VERTEX
  8
26 道路
 10
-427.563159
 20
248.545568
  0
VERTEX
  8
26 道路
 10
-425.484375
 20
246.512949
  0
SEQEND
  0
POLYLINE
  8
26 道路
 40
0.070556
 41
0.070556
 62
252
 66
1
 10
0
 20
0
 30
0
 70
1
  0
VERTEX
  8
26 道路
 10
-427.360930
 20
243.101594
  0
VERTEX
  8
26 道路
 10
-423.434186
 20
237.685180
  0
VERTEX
  8
26 道路
 10
-423.817627
 20
237.395791
  0
VERTEX
  8
26 道路
 10
-428.023426
 20
242.639259
  0
SEQEND
  0
POLYLINE
  8
26 道路
 40
0.070556
 41
0.070556
 62
252
 66
1
 10
0
 20
0
 30
0
 70
1
  0
VERTEX
  8
26 道路
 10
-424.672016
 20
236.750176
  0
VERTEX
  8
26 道路
 10
-428.347267
 20
233.974100
  0
VERTEX
  8
26 道路
 10
-433.843607
 20
237.386833
  0
VERTEX
  8
26 道路
 10
-430.679267
 20
240.783719
  0
VERTEX
  8
26 道路
 10
-428.903309
 20
242.024650
  0
SEQEND
  0
POLYLINE
  8
26 道路
 40
0.070556
 41
0.070556
 62
252
 66
1
 10
0
 20
0
 30
0
  0
VERTEX
  8
26 道路
 10
-434.355552
 20
229.334561
  0
VERTEX
  8
26 道路
 10
-432.475207
 20
230.788745
  0
VERTEX
  8
26 道路
 10
-434.355552
 20
235.350080
  0
SEQEND
  0
POLYLINE
  8
26 道路
 40
0.070556
 41
0.070556
 62
252
 66
1
 10
0
 20
0
 30
0
  0
VERTEX
  8
26 道路
 10
-434.355552
 20
249.805103
  0
VERTEX
  8
26 道路
 10
-433.324773
 20
251.986551
  0
VERTEX
  8
26 道路
 10
-434.355552
 20
252.472657
  0
SEQEND
  0
POLYLINE
  8
26 道路
 40
0.070556
 41
0.070556
 62
252
 66
1
 10
0
 20
0
 30
0
  0
VERTEX
  8
26 道路
 10
-284.247662
 20
162.456224
  0
VERTEX
  8
26 道路
 10
-286.619970
 20
161.068530
  0
VERTEX
  8
26 道路
 10
-285.178188
 20
158.643168
  0
VERTEX
  8
26 道路
 10
-284.247662
 20
159.233661
  0
SEQEND
  0
POLYLINE
  8
26 道路
 40
0.070556
 41
0.070556
 62
252
 66
1
 10
0
 20
0
 30
0
  0
VERTEX
  8
26 道路
 10
-286.555890
 20
157.824263
  0
VERTEX
  8
26 道路
 10
-285.764547
 20
158.286254
  0
VERTEX
  8
26 道路
 10
-287.211841
 20
160.721952
  0
VERTEX
  8
26 道路
 10
-292.164886
 20
157.824263
  0
SEQEND
  0
POLYLINE
  8
26 道路
 40
0.070556
 41
0.070556
 62
252
 66
1
 10
0
 20
0
 30
0
  0
VERTEX
  8
26 道路
 10
-336.248261
 20
157.824263
  0
VERTEX
  8
26 道路
 10
-337.492637
 20
160.604818
  0
VERTEX
  8
26 道路
 10
-340.498502
 20
157.824263
  0
SEQEND
  0
POLYLINE
  8
26 道路
 40
0.070556
 41
0.070556
 62
252
 66
1
 10
0
 20
0
 30
0
  0
VERTEX
  8
26 道路
 10
-315.006357
 20
157.824263
  0
VERTEX
  8
26 道路
 10
-321.493857
 20
163.584155
  0
VERTEX
  8
26 道路
 10
-328.461607
 20
166.406395
  0
VERTEX
  8
26 道路
 10
-334.958409
 20
170.639066
  0
VERTEX
  8
26 道路
 10
-336.178325
 20
169.096342
  0
VERTEX
  8
26 道路
 10
-336.033974
 20
167.995972
  0
VERTEX
  8
26 道路
 10
-334.582202
 20
165.826926
  0
VERTEX
  8
26 道路
 10
-334.509166
 20
163.582777
  0
VERTEX
  8
26 道路
 10
-335.463463
 20
162.907534
  0
VERTEX
  8
26 道路
 10
-337.236665
 20
163.288219
  0
VERTEX
  8
26 道路
 10
-337.148470
 20
162.250206
  0
VERTEX
  8
26 道路
 10
-336.861492
 20
161.188420
  0
VERTEX
  8
26 道路
 10
-335.355631
 20
157.824263
  0
SEQEND
  0
POLYLINE
  8
26 道路
 40
0.070556
 41
0.070556
 62
252
 66
1
 10
0
 20
0
 30
0
 70
1
  0
VERTEX
  8
26 道路
 10
-326.442768
 20
168.293630
  0
VERTEX
  8
26 道路
 10
-321.266824
 20
176.126449
  0
VERTEX
  8
26 道路
 10
-316.028868
 20
172.639990
  0
VERTEX
  8
26 道路
 10
-320.638435
 20
165.942682
  0
SEQEND
  0
POLYLINE
  8
26 道路
 40
0.070556
 41
0.070556
 62
252
 66
1
 10
0
 20
0
 30
0
 70
1
  0
VERTEX
  8
26 道路
 10
-320.632578
 20
177.085569
  0
VERTEX
  8
26 道路
 10
-316.961806
 20
182.640476
  0
VERTEX
  8
26 道路
 10
-316.781971
 20
182.673549
  0
VERTEX
  8
26 道路
 10
-314.324224
 20
173.617714
  0
VERTEX
  8
26 道路
 10
-315.111089
 20
173.410318
  0
SEQEND
  0
POLYLINE
  8
26 道路
 40
0.070556
 41
0.070556
 62
252
 66
1
 10
0
 20
0
 30
0
 70
1
  0
VERTEX
  8
26 道路
 10
-315.789777
 20
182.849939
  0
VERTEX
  8
26 道路
 10
-307.191798
 20
184.378538
  0
VERTEX
  8
26 道路
 10
-305.045490
 20
175.073621
  0
VERTEX
  8
26 道路
 10
-313.337542
 20
173.813397
  0
SEQEND
  0
POLYLINE
  8
26 道路
 40
0.070556
 41
0.070556
 62
252
 66
1
 10
0
 20
0
 30
0
 70
1
  0
VERTEX
  8
26 道路
 10
-306.429393
 20
184.513931
  0
VERTEX
  8
26 道路
 10
-302.643899
 20
185.187796
  0
VERTEX
  8
26 道路
 10
-301.385397
 20
179.723840
  0
VERTEX
  8
26 道路
 10
-300.768377
 20
179.812035
  0
VERTEX
  8
26 道路
 10
-301.224166
 20
181.792977
  0
VERTEX
  8
26 道路
 10
-297.341519
 20
182.673549
  0
VERTEX
  8
26 道路
 10
-295.823945
 20
176.474405
  0
VERTEX
  8
26 道路
 10
-304.278607
 20
175.190066
  0
SEQEND
  0
POLYLINE
  8
26 道路
 40
0.070556
 41
0.070556
 62
252
 66
1
 10
0
 20
0
 30
0
  0
VERTEX
  8
26 道路
 10
-284.247662
 20
198.547271
  0
VERTEX
  8
26 道路
 10
-286.471829
 20
200.521323
  0
VERTEX
  8
26 道路
 10
-284.346881
 20
191.484781
  0
VERTEX
  8
26 道路
 10
-284.247662
 20
191.594680
  0
SEQEND
  0
POLYLINE
  8
26 道路
 40
0.070556
 41
0.070556
 62
252
 66
1
 10
0
 20
0
 30
0
 70
1
  0
VERTEX
  8
26 道路
 10
-287.718962
 20
202.775808
  0
VERTEX
  8
26 道路
 10
-289.998251
 20
203.200935
  0
VERTEX
  8
26 道路
 10
-288.489979
 20
209.036275
  0
VERTEX
  8
26 道路
 10
-284.795780
 20
206.006639
  0
SEQEND
  0
POLYLINE
  8
26 道路
 40
0.070556
 41
0.070556
 62
252
 66
1
 10
0
 20
0
 30
0
 70
1
  0
VERTEX
  8
26 道路
 10
-290.777192
 20
203.345630
  0
VERTEX
  8
26 道路
 10
-297.723927
 20
204.639616
  0
VERTEX
  8
26 道路
 10
-295.380903
 20
212.545471
  0
VERTEX
  8
26 道路
 10
-293.447847
 20
211.562235
  0
VERTEX
  8
26 道路
 10
-289.193472
 20
209.475183
  0
SEQEND
  0
POLYLINE
  8
26 道路
 40
0.070556
 41
0.070556
 62
252
 66
1
 10
0
 20
0
 30
0
 70
1
  0
VERTEX
  8
26 道路
 10
-294.948196
 20
202.808192
  0
VERTEX
  8
26 道路
 10
-294.565788
 20
200.785219
  0
VERTEX
  8
26 道路
 10
-300.626438
 20
199.418541
  0
VERTEX
  8
26 道路
 10
-301.696491
 20
203.790740
  0
VERTEX
  8
26 道路
 10
-301.650327
 20
203.801075
  0
VERTEX
  8
26 道路
 10
-301.745757
 20
203.991934
  0
VERTEX
  8
26 道路
 10
-301.766772
 20
204.078751
  0
SEQEND
  0
POLYLINE
  8
26 道路
 40
0.070556
 41
0.070556
 62
252
 66
1
 10
0
 20
0
 30
0
 70
1
  0
VERTEX
  8
26 道路
 10
-301.397455
 20
199.244563
  0
VERTEX
  8
26 道路
 10
-305.052036
 20
198.419802
  0
VERTEX
  8
26 道路
 10
-306.067312
 20
202.830930
  0
VERTEX
  8
26 道路
 10
-302.468198
 20
203.622618
  0
SEQEND
  0
POLYLINE
  8
26 道路
 40
0.070556
 41
0.070556
 62
252
 66
1
 10
0
 20
0
 30
0
 70
1
  0
VERTEX
  8
26 道路
 10
-310.689970
 20
202.990094
  0
VERTEX
  8
26 道路
 10
-311.586734
 20
206.876876
  0
VERTEX
  8
26 道路
 10
-303.599230
 20
204.547976
  0
SEQEND
  0
POLYLINE
  8
26 道路
 40
0.070556
 41
0.070556
 62
252
 66
1
 10
0
 20
0
 30
0
 70
1
  0
VERTEX
  8
26 道路
 10
-311.445828
 20
202.824729
  0
VERTEX
  8
26 道路
 10
-320.270496
 20
200.885817
  0
VERTEX
  8
26 道路
 10
-321.554836
 20
207.031906
  0
VERTEX
  8
26 道路
 10
-319.897045
 20
209.353226
  0
VERTEX
  8
26 道路
 10
-319.714454
 20
209.247805
  0
VERTEX
  8
26 道路
 10
-312.438022
 20
207.125613
  0
SEQEND
  0
POLYLINE
  8
26 道路
 40
0.070556
 41
0.070556
 62
252
 66
1
 10
0
 20
0
 30
0
 70
1
  0
VERTEX
  8
26 道路
 10
-320.223643
 20
195.809092
  0
VERTEX
  8
26 道路
 10
-326.561280
 20
200.023159
  0
VERTEX
  8
26 道路
 10
-323.056218
 20
204.930384
  0
VERTEX
  8
26 道路
 10
-322.100542
 20
204.788445
  0
SEQEND
  0
POLYLINE
  8
26 道路
 40
0.070556
 41
0.070556
 62
252
 66
1
 10
0
 20
0
 30
0
 70
1
  0
VERTEX
  8
26 道路
 10
-325.092282
 20
204.514903
  0
VERTEX
  8
26 道路
 10
-333.331280
 20
209.833475
  0
VERTEX
  8
26 道路
 10
-330.169007
 20
214.806846
  0
VERTEX
  8
26 道路
 10
-323.375925
 20
210.887681
  0
VERTEX
  8
26 道路
 10
-322.733755
 20
207.816014
  0
SEQEND
  0
POLYLINE
  8
26 道路
 40
0.070556
 41
0.070556
 62
252
 66
1
 10
0
 20
0
 30
0
 70
1
  0
VERTEX
  8
26 道路
 10
-325.674507
 20
203.698410
  0
VERTEX
  8
26 道路
 10
-327.740199
 20
200.807957
  0
VERTEX
  8
26 道路
 10
-335.697731
 20
206.099657
  0
VERTEX
  8
26 道路
 10
-334.578757
 20
207.873892
  0
VERTEX
  8
26 道路
 10
-333.869407
 20
208.988043
  0
SEQEND
  0
POLYLINE
  8
26 道路
 40
0.070556
 41
0.070556
 62
252
 66
1
 10
0
 20
0
 30
0
 70
1
  0
VERTEX
  8
26 道路
 10
-328.549457
 20
199.641440
  0
VERTEX
  8
26 道路
 10
-332.371470
 20
193.592504
  0
VERTEX
  8
26 道路
 10
-340.231505
 20
198.909698
  0
VERTEX
  8
26 道路
 10
-336.454968
 20
204.898689
  0
SEQEND
  0
POLYLINE
  8
26 道路
 40
0.070556
 41
0.070556
 62
252
 66
1
 10
0
 20
0
 30
0
 70
1
  0
VERTEX
  8
26 道路
 10
-340.864029
 20
201.893858
  0
VERTEX
  8
26 道路
 10
-347.504837
 20
205.846785
  0
VERTEX
  8
26 道路
 10
-348.046409
 20
204.937275
  0
VERTEX
  8
26 道路
 10
-341.429028
 20
200.998128
  0
VERTEX
  8
26 道路
 10
-351.784361
 20
184.580077
  0
VERTEX
  8
26 道路
 10
-371.198286
 20
194.353875
  0
VERTEX
  8
26 道路
 10
-370.984688
 20
194.687362
  0
VERTEX
  8
26 道路
 10
-369.416471
 20
195.315062
  0
VERTEX
  8
26 道路
 10
-364.661176
 20
202.313473
  0
VERTEX
  8
26 道路
 10
-363.893259
 20
204.190373
  0
VERTEX
  8
26 道路
 10
-362.040820
 20
205.453353
  0
VERTEX
  8
26 道路
 10
-359.935853
 20
206.768699
  0
VERTEX
  8
26 道路
 10
-357.777487
 20
207.976557
  0
VERTEX
  8
26 道路
 10
-356.429413
 20
208.397550
  0
VERTEX
  8
26 道路
 10
-353.924812
 20
208.743785
  0
VERTEX
  8
26 道路
 10
-349.972229
 20
208.743785
  0
VERTEX
  8
26 道路
 10
-346.986002
 20
213.050526
  0
VERTEX
  8
26 道路
 10
-345.904924
 20
212.350478
  0
VERTEX
  8
26 道路
 10
-345.764363
 20
211.321766
  0
VERTEX
  8
26 道路
 10
-346.645624
 20
209.944408
  0
VERTEX
  8
26 道路
 10
-346.683521
 20
209.885152
  0
VERTEX
  8
26 道路
 10
-346.802033
 20
207.592771
  0
VERTEX
  8
26 道路
 10
-347.526885
 20
206.476553
  0
VERTEX
  8
26 道路
 10
-347.083154
 20
206.188541
  0
VERTEX
  8
26 道路
 10
-346.515399
 20
207.062223
  0
VERTEX
  8
26 道路
 10
-345.709931
 20
207.011235
  0
VERTEX
  8
26 道路
 10
-344.860365
 20
206.728735
  0
VERTEX
  8
26 道路
 10
-344.071777
 20
206.545455
  0
VERTEX
  8
26 道路
 10
-343.968079
 20
206.521339
  0
VERTEX
  8
26 道路
 10
-343.240471
 20
206.957491
  0
VERTEX
  8
26 道路
 10
-341.859668
 20
208.903293
  0
VERTEX
  8
26 道路
 10
-341.933393
 20
209.861036
  0
VERTEX
  8
26 道路
 10
-342.505627
 20
210.432925
  0
VERTEX
  8
26 道路
 10
-343.079928
 20
210.361267
  0
VERTEX
  8
26 道路
 10
-343.919848
 20
210.413633
  0
VERTEX
  8
26 道路
 10
-345.235193
 20
211.361040
  0
VERTEX
  8
26 道路
 10
-345.412961
 20
212.662605
  0
VERTEX
  8
26 道路
 10
-346.684210
 20
213.485299
  0
VERTEX
  8
26 道路
 10
-345.745071
 20
214.839919
  0
VERTEX
  8
26 道路
 10
-337.593234
 20
209.956810
  0
VERTEX
  8
26 道路
 10
-337.033058
 20
207.968289
  0
SEQEND
  0
POLYLINE
  8
26 道路
 40
0.070556
 41
0.070556
 62
252
 66
1
 10
0
 20
0
 30
0
 70
1
  0
VERTEX
  8
26 道路
 10
-345.436044
 20
210.853230
  0
VERTEX
  8
26 道路
 10
-344.105195
 20
209.894798
  0
VERTEX
  8
26 道路
 10
-343.063391
 20
209.830030
  0
VERTEX
  8
26 道路
 10
-342.696831
 20
209.875506
  0
VERTEX
  8
26 道路
 10
-342.446026
 20
209.625735
  0
VERTEX
  8
26 道路
 10
-342.402618
 20
209.053501
  0
VERTEX
  8
26 道路
 10
-343.607720
 20
207.354369
  0
VERTEX
  8
26 道路
 10
-344.056963
 20
207.084961
  0
VERTEX
  8
26 道路
 10
-344.717048
 20
207.237235
  0
VERTEX
  8
26 道路
 10
-345.574882
 20
207.524558
  0
VERTEX
  8
26 道路
 10
-345.607955
 20
207.535582
  0
VERTEX
  8
26 道路
 10
-346.272863
 20
207.576923
  0
VERTEX
  8
26 道路
 10
-346.162274
 20
209.717719
  0
SEQEND
  0
POLYLINE
  8
26 道路
 40
0.070556
 41
0.070556
 62
252
 66
1
 10
0
 20
0
 30
0
 70
1
  0
VERTEX
  8
26 道路
 10
-346.368637
 20
217.317648
  0
VERTEX
  8
26 道路
 10
-353.677798
 20
221.695703
  0
VERTEX
  8
26 道路
 10
-352.234982
 20
223.946742
  0
VERTEX
  8
26 道路
 10
-344.956139
 20
219.562486
  0
SEQEND
  0
POLYLINE
  8
26 道路
 40
0.070556
 41
0.070556
 62
252
 66
1
 10
0
 20
0
 30
0
 70
1
  0
VERTEX
  8
26 道路
 10
-359.831466
 20
234.239374
  0
VERTEX
  8
26 道路
 10
-357.785066
 20
237.618690
  0
VERTEX
  8
26 道路
 10
-349.754498
 20
232.578139
  0
VERTEX
  8
26 道路
 10
-352.013806
 20
229.055851
  0
SEQEND
  0
POLYLINE
  8
26 道路
 40
0.070556
 41
0.070556
 62
252
 66
1
 10
0
 20
0
 30
0
 70
1
  0
VERTEX
  8
26 道路
 10
-359.002571
 20
238.383161
  0
VERTEX
  8
26 道路
 10
-361.030367
 20
235.033818
  0
VERTEX
  8
26 道路
 10
-369.483306
 20
240.638335
  0
VERTEX
  8
26 道路
 10
-367.583669
 20
243.767190
  0
SEQEND
  0
POLYLINE
  8
26 道路
 40
0.070556
 41
0.070556
 62
252
 66
1
 10
0
 20
0
 30
0
 70
1
  0
VERTEX
  8
26 道路
 10
-370.682896
 20
241.434846
  0
VERTEX
  8
26 道路
 10
-378.614245
 20
246.692784
  0
VERTEX
  8
26 道路
 10
-376.808314
 20
249.556365
  0
VERTEX
  8
26 道路
 10
-368.801862
 20
244.531317
  0
SEQEND
  0
POLYLINE
  8
26 道路
 40
0.070556
 41
0.070556
 62
252
 66
1
 10
0
 20
0
 30
0
 70
1
  0
VERTEX
  8
26 道路
 10
-371.489053
 20
240.194604
  0
VERTEX
  8
26 道路
 10
-374.038440
 20
236.670938
  0
VERTEX
  8
26 道路
 10
-381.634924
 20
241.901315
  0
VERTEX
  8
26 道路
 10
-379.402832
 20
245.441517
  0
SEQEND
  0
POLYLINE
  8
26 道路
 40
0.070556
 41
0.070556
 62
252
 66
1
 10
0
 20
0
 30
0
 70
1
  0
VERTEX
  8
26 道路
 10
-380.758141
 20
248.114239
  0
VERTEX
  8
26 道路
 10
-388.698447
 20
253.379067
  0
VERTEX
  8
26 道路
 10
-387.181562
 20
256.066259
  0
VERTEX
  8
26 道路
 10
-378.987006
 20
250.924421
  0
SEQEND
  0
POLYLINE
  8
26 道路
 40
0.070556
 41
0.070556
 62
252
 66
1
 10
0
 20
0
 30
0
 70
1
  0
VERTEX
  8
26 道路
 10
-390.141607
 20
254.335432
  0
VERTEX
  8
26 道路
 10
-393.188469
 20
256.355649
  0
VERTEX
  8
26 道路
 10
-391.736696
 20
258.924328
  0
VERTEX
  8
26 道路
 10
-388.645737
 20
256.985416
  0
SEQEND
  0
POLYLINE
  8
26 道路
 40
0.070556
 41
0.070556
 62
252
 66
1
 10
0
 20
0
 30
0
 70
1
  0
VERTEX
  8
26 道路
 10
-393.736931
 20
256.719453
  0
VERTEX
  8
26 道路
 10
-397.290914
 20
259.075913
  0
VERTEX
  8
26 道路
 10
-395.833629
 20
261.496452
  0
VERTEX
  8
26 道路
 10
-392.292738
 20
259.273663
  0
SEQEND
  0
POLYLINE
  8
26 道路
 40
0.070556
 41
0.070556
 62
252
 66
1
 10
0
 20
0
 30
0
 70
1
  0
VERTEX
  8
26 道路
 10
-394.465918
 20
255.428912
  0
VERTEX
  8
26 道路
 10
-396.375891
 20
252.050630
  0
VERTEX
  8
26 道路
 10
-400.014624
 20
254.555919
  0
VERTEX
  8
26 道路
 10
-398.055041
 20
257.808110
  0
SEQEND
  0
POLYLINE
  8
26 道路
 40
0.070556
 41
0.070556
 62
252
 66
1
 10
0
 20
0
 30
0
 70
1
  0
VERTEX
  8
26 道路
 10
-396.871299
 20
251.150766
  0
VERTEX
  8
26 道路
 10
-397.935151
 20
249.149152
  0
VERTEX
  8
26 道路
 10
-401.329969
 20
251.936941
  0
VERTEX
  8
26 道路
 10
-400.499696
 20
253.649854
  0
SEQEND
  0
POLYLINE
  8
26 道路
 40
0.070556
 41
0.070556
 62
252
 66
1
 10
0
 20
0
 30
0
 70
1
  0
VERTEX
  8
26 道路
 10
-398.242800
 20
248.568306
  0
VERTEX
  8
26 道路
 10
-399.372454
 20
246.443357
  0
VERTEX
  8
26 道路
 10
-402.654962
 20
249.199451
  0
VERTEX
  8
26 道路
 10
-401.618670
 20
251.339558
  0
SEQEND
  0
POLYLINE
  8
26 道路
 40
0.070556
 41
0.070556
 62
252
 66
1
 10
0
 20
0
 30
0
 70
1
  0
VERTEX
  8
26 道路
 10
-400.126246
 20
245.309569
  0
VERTEX
  8
26 道路
 10
-401.489823
 20
243.708623
  0
VERTEX
  8
26 道路
 10
-404.928739
 20
247.114466
  0
VERTEX
  8
26 道路
 10
-403.502116
 20
248.143867
  0
SEQEND
  0
POLYLINE
  8
26 道路
 40
0.070556
 41
0.070556
 62
252
 66
1
 10
0
 20
0
 30
0
 70
1
  0
VERTEX
  8
26 道路
 10
-408.176451
 20
246.326912
  0
VERTEX
  8
26 道路
 10
-409.315751
 20
247.702548
  0
VERTEX
  8
26 道路
 10
-406.345371
 20
250.531333
  0
VERTEX
  8
26 道路
 10
-404.499477
 20
248.981031
  0
SEQEND
  0
POLYLINE
  8
26 道路
 40
0.070556
 41
0.070556
 62
252
 66
1
 10
0
 20
0
 30
0
 70
1
  0
VERTEX
  8
26 道路
 10
-409.654062
 20
248.110105
  0
VERTEX
  8
26 道路
 10
-411.641205
 20
250.507218
  0
VERTEX
  8
26 道路
 10
-409.626501
 20
253.286049
  0
VERTEX
  8
26 道路
 10
-406.753273
 20
250.873778
  0
SEQEND
  0
POLYLINE
  8
26 道路
 40
0.070556
 41
0.070556
 62
252
 66
1
 10
0
 20
0
 30
0
 70
1
  0
VERTEX
  8
26 道路
 10
-412.269595
 20
251.265832
  0
VERTEX
  8
26 道路
 10
-416.121236
 20
255.913985
  0
VERTEX
  8
26 道路
 10
-415.068408
 20
257.855653
  0
VERTEX
  8
26 道路
 10
-410.358933
 20
253.901347
  0
SEQEND
  0
POLYLINE
  8
26 道路
 40
0.070556
 41
0.070556
 62
252
 66
1
 10
0
 20
0
 30
0
 70
1
  0
VERTEX
  8
26 道路
 10
-413.158090
 20
250.410065
  0
VERTEX
  8
26 道路
 10
-415.636852
 20
248.639275
  0
VERTEX
  8
26 道路
 10
-418.466671
 20
252.640434
  0
VERTEX
  8
26 道路
 10
-416.775119
 20
254.775718
  0
SEQEND
  0
POLYLINE
  8
26 道路
 40
0.070556
 41
0.070556
 62
252
 66
1
 10
0
 20
0
 30
0
 70
1
  0
VERTEX
  8
26 道路
 10
-414.091373
 20
242.058068
  0
VERTEX
  8
26 道路
 10
-416.707595
 20
240.169110
  0
VERTEX
  8
26 道路
 10
-420.281215
 20
245.162463
  0
VERTEX
  8
26 道路
 10
-421.855289
 20
248.360910
  0
VERTEX
  8
26 道路
 10
-420.107925
 20
250.566474
  0
SEQEND
  0
POLYLINE
  8
26 道路
 40
0.070556
 41
0.070556
 62
252
 66
1
 10
0
 20
0
 30
0
 70
1
  0
VERTEX
  8
26 道路
 10
-423.051433
 20
248.852872
  0
VERTEX
  8
26 道路
 10
-424.411566
 20
247.544417
  0
VERTEX
  8
26 道路
 10
-427.423287
 20
251.433954
  0
VERTEX
  8
26 道路
 10
-428.989093
 20
253.874475
  0
VERTEX
  8
26 道路
 10
-425.904679
 20
257.450851
  0
VERTEX
  8
26 道路
 10
-424.610693
 20
256.535484
  0
VERTEX
  8
26 道路
 10
-420.789369
 20
251.657198
  0
SEQEND
  0
POLYLINE
  8
26 道路
 40
0.070556
 41
0.070556
 62
252
 66
1
 10
0
 20
0
 30
0
  0
VERTEX
  8
26 道路
 10
-434.355552
 20
238.197814
  0
VERTEX
  8
26 道路
 10
-431.326260
 20
241.489968
  0
VERTEX
  8
26 道路
 10
-427.865640
 20
243.906373
  0
VERTEX
  8
26 道路
 10
-430.900788
 20
251.530073
  0
VERTEX
  8
26 道路
 10
-431.588434
 20
252.632166
  0
VERTEX
  8
26 道路
 10
-434.355552
 20
246.778223
  0
SEQEND
  0
POLYLINE
  8
26 道路
 40
0.070556
 41
0.070556
 62
252
 66
1
 10
0
 20
0
 30
0
  0
VERTEX
  8
26 道路
 10
-434.355552
 20
253.371144
  0
VERTEX
  8
26 道路
 10
-432.976816
 20
252.721739
  0
VERTEX
  8
26 道路
 10
-432.414573
 20
253.911682
  0
VERTEX
  8
26 道路
 10
-433.765748
 20
256.003558
  0
VERTEX
  8
26 道路
 10
-434.355552
 20
254.018826
  0
SEQEND
  0
POLYLINE
  8
26 道路
 40
0.070556
 41
0.070556
 62
252
 66
1
 10
0
 20
0
 30
0
  0
VERTEX
  8
26 道路
 10
-434.355552
 20
256.370118
  0
VERTEX
  8
26 道路
 10
-434.243930
 20
256.745291
  0
VERTEX
  8
26 道路
 10
-434.355552
 20
256.918236
  0
SEQEND
  0
POLYLINE
  8
26 道路
 40
0.070556
 41
0.070556
 62
252
 66
1
 10
0
 20
0
 30
0
  0
VERTEX
  8
26 道路
 10
-284.247662
 20
166.902492
  0
VERTEX
  8
26 道路
 10
-288.541311
 20
164.300739
  0
VERTEX
  8
26 道路
 10
-287.223210
 20
162.083462
  0
VERTEX
  8
26 道路
 10
-284.247662
 20
163.835648
  0
SEQEND
  0
POLYLINE
  8
26 道路
 40
0.070556
 41
0.070556
 62
252
 66
1
 10
0
 20
0
 30
0
  0
VERTEX
  8
26 道路
 10
-294.458300
 20
157.824263
  0
VERTEX
  8
26 道路
 10
-287.814736
 20
161.735850
  0
VERTEX
  8
26 道路
 10
-289.127670
 20
163.945203
  0
VERTEX
  8
26 道路
 10
-297.071422
 20
159.130996
  0
VERTEX
  8
26 道路
 10
-296.353459
 20
157.824263
  0
SEQEND
  0
POLYLINE
  8
26 道路
 40
0.070556
 41
0.070556
 62
252
 66
1
 10
0
 20
0
 30
0
  0
VERTEX
  8
26 道路
 10
-297.036970
 20
157.824263
  0
VERTEX
  8
26 道路
 10
-297.584055
 20
158.820936
  0
VERTEX
  8
26 道路
 10
-299.229098
 20
157.824263
  0
SEQEND
  0
POLYLINE
  8
26 道路
 40
0.070556
 41
0.070556
 62
252
 66
1
 10
0
 20
0
 30
0
  0
VERTEX
  8
26 道路
 10
-310.067093
 20
157.824263
  0
VERTEX
  8
26 道路
 10
-309.136566
 20
158.359290
  0
VERTEX
  8
26 道路
 10
-311.569164
 20
163.467021
  0
VERTEX
  8
26 道路
 10
-313.950429
 20
172.240356
  0
VERTEX
  8
26 道路
 10
-314.614647
 20
172.050875
  0
VERTEX
  8
26 道路
 10
-319.423686
 20
165.062799
  0
VERTEX
  8
26 道路
 10
-311.087881
 20
157.824263
  0
SEQEND
  0
POLYLINE
  8
26 道路
 40
0.070556
 41
0.070556
 62
252
 66
1
 10
0
 20
0
 30
0
 70
1
  0
VERTEX
  8
26 道路
 10
-310.641738
 20
163.879057
  0
VERTEX
  8
26 道路
 10
-313.100863
 20
172.940404
  0
VERTEX
  8
26 道路
 10
-304.843261
 20
174.195116
  0
VERTEX
  8
26 道路
 10
-302.121963
 20
162.393522
  0
VERTEX
  8
26 道路
 10
-308.253927
 20
158.867100
  0
SEQEND
  0
POLYLINE
  8
26 道路
 40
0.070556
 41
0.070556
 62
252
 66
1
 10
0
 20
0
 30
0
 70
1
  0
VERTEX
  8
26 道路
 10
-304.076723
 20
174.311561
  0
VERTEX
  8
26 道路
 10
-295.609658
 20
175.597968
  0
VERTEX
  8
26 道路
 10
-293.579795
 20
167.305570
  0
VERTEX
  8
26 道路
 10
-301.420882
 20
162.796601
  0
SEQEND
  0
POLYLINE
  8
26 道路
 40
0.070556
 41
0.070556
 62
252
 66
1
 10
0
 20
0
 30
0
  0
VERTEX
  8
26 道路
 10
-284.247662
 20
177.324316
  0
VERTEX
  8
26 道路
 10
-294.825205
 20
175.717858
  0
VERTEX
  8
26 道路
 10
-292.866656
 20
167.716228
  0
VERTEX
  8
26 道路
 10
-284.247662
 20
172.999316
  0
SEQEND
  0
POLYLINE
  8
26 道路
 40
0.070556
 41
0.070556
 62
252
 66
1
 10
0
 20
0
 30
0
  0
VERTEX
  8
26 道路
 10
-284.247662
 20
213.618281
  0
VERTEX
  8
26 道路
 10
-289.745035
 20
217.492660
  0
VERTEX
  8
26 道路
 10
-291.397658
 20
213.232428
  0
VERTEX
  8
26 道路
 10
-287.274197
 20
211.209455
  0
VERTEX
  8
26 道路
 10
-284.247662
 20
208.723458
  0
SEQEND
  0
POLYLINE
  8
26 道路
 40
0.070556
 41
0.070556
 62
252
 66
1
 10
0
 20
0
 30
0
 70
1
  0
VERTEX
  8
26 道路
 10
-292.247913
 20
213.654799
  0
VERTEX
  8
26 道路
 10
-307.003694
 20
221.158953
  0
VERTEX
  8
26 道路
 10
-304.331317
 20
226.804122
  0
VERTEX
  8
26 道路
 10
-290.549470
 20
218.030098
  0
SEQEND
  0
POLYLINE
  8
26 道路
 40
0.070556
 41
0.070556
 62
252
 66
1
 10
0
 20
0
 30
0
 70
1
  0
VERTEX
  8
26 道路
 10
-296.499532
 20
213.114605
  0
VERTEX
  8
26 道路
 10
-297.418345
 20
210.012621
  0
VERTEX
  8
26 道路
 10
-310.012315
 20
214.802023
  0
VERTEX
  8
26 道路
 10
-308.034129
 20
218.980261
  0
SEQEND
  0
POLYLINE
  8
26 道路
 40
0.070556
 41
0.070556
 62
252
 66
1
 10
0
 20
0
 30
0
 70
1
  0
VERTEX
  8
26 道路
 10
-311.046539
 20
215.195455
  0
VERTEX
  8
26 道路
 10
-315.408747
 20
216.853935
  0
VERTEX
  8
26 道路
 10
-317.775198
 20
218.265744
  0
VERTEX
  8
26 道路
 10
-314.867174
 20
223.156432
  0
VERTEX
  8
26 道路
 10
-309.012542
 20
219.493584
  0
SEQEND
  0
POLYLINE
  8
26 道路
 40
0.070556
 41
0.070556
 62
252
 66
1
 10
0
 20
0
 30
0
 70
1
  0
VERTEX
  8
26 道路
 10
-315.937917
 20
215.883790
  0
VERTEX
  8
26 道路
 10
-297.730472
 20
208.959793
  0
VERTEX
  8
26 道路
 10
-298.943843
 20
204.866994
  0
VERTEX
  8
26 道路
 10
-301.979680
 20
205.432682
  0
VERTEX
  8
26 道路
 10
-319.302418
 20
210.485291
  0
VERTEX
  8
26 道路
 10
-321.609958
 20
211.816485
  0
VERTEX
  8
26 道路
 10
-318.339508
 20
217.316959
  0
SEQEND
  0
POLYLINE
  8
26 道路
 40
0.070556
 41
0.070556
 62
252
 66
1
 10
0
 20
0
 30
0
 70
1
  0
VERTEX
  8
26 道路
 10
-322.434719
 20
212.292600
  0
VERTEX
  8
26 道路
 10
-329.262941
 20
216.231058
  0
VERTEX
  8
26 道路
 10
-325.756845
 20
221.743590
  0
VERTEX
  8
26 道路
 10
-319.157723
 20
217.805476
  0
SEQEND
  0
POLYLINE
  8
26 道路
 40
0.070556
 41
0.070556
 62
252
 66
1
 10
0
 20
0
 30
0
 70
1
  0
VERTEX
  8
26 道路
 10
-331.080929
 20
217.334184
  0
VERTEX
  8
26 道路
 10
-338.912370
 20
222.476366
  0
VERTEX
  8
26 道路
 10
-335.561304
 20
227.802517
  0
VERTEX
  8
26 道路
 10
-327.702992
 20
222.643799
  0
SEQEND
  0
POLYLINE
  8
26 道路
 40
0.070556
 41
0.070556
 62
252
 66
1
 10
0
 20
0
 30
0
 70
1
  0
VERTEX
  8
26 道路
 10
-331.804749
 20
216.195228
  0
VERTEX
  8
26 道路
 10
-335.305677
 20
210.691309
  0
VERTEX
  8
26 道路
 10
-343.310062
 20
215.485534
  0
VERTEX
  8
26 道路
 10
-339.630677
 20
221.333965
  0
SEQEND
  0
POLYLINE
  8
26 道路
 40
0.070556
 41
0.070556
 62
252
 66
1
 10
0
 20
0
 30
0
 70
1
  0
VERTEX
  8
26 道路
 10
-344.179609
 20
220.797905
  0
VERTEX
  8
26 道路
 10
-351.448118
 20
225.175271
  0
VERTEX
  8
26 道路
 10
-347.579251
 20
231.212494
  0
VERTEX
  8
26 道路
 10
-340.444069
 20
226.735565
  0
SEQEND
  0
POLYLINE
  8
26 道路
 40
0.070556
 41
0.070556
 62
252
 66
1
 10
0
 20
0
 30
0
 70
1
  0
VERTEX
  8
26 道路
 10
-349.014487
 20
233.731564
  0
VERTEX
  8
26 道路
 10
-357.074683
 20
238.789685
  0
VERTEX
  8
26 道路
 10
-354.627961
 20
242.830808
  0
VERTEX
  8
26 道路
 10
-346.456143
 20
237.718943
  0
SEQEND
  0
POLYLINE
  8
26 道路
 40
0.070556
 41
0.070556
 62
252
 66
1
 10
0
 20
0
 30
0
 70
1
  0
VERTEX
  8
26 道路
 10
-354.115327
 20
243.676928
  0
VERTEX
  8
26 道路
 10
-351.505996
 20
247.984703
  0
VERTEX
  8
26 道路
 10
-343.197751
 20
242.797734
  0
VERTEX
  8
26 道路
 10
-345.922150
 20
238.551283
  0
SEQEND
  0
POLYLINE
  8
26 道路
 40
0.070556
 41
0.070556
 62
252
 66
1
 10
0
 20
0
 30
0
 70
1
  0
VERTEX
  8
26 道路
 10
-360.042996
 20
256.190283
  0
VERTEX
  8
26 道路
 10
-358.502340
 20
258.727267
  0
VERTEX
  8
26 道路
 10
-349.880934
 20
253.442457
  0
VERTEX
  8
26 道路
 10
-351.461554
 20
250.833126
  0
SEQEND
  0
POLYLINE
  8
26 道路
 40
0.070556
 41
0.070556
 62
252
 66
1
 10
0
 20
0
 30
0
 70
1
  0
VERTEX
  8
26 道路
 10
-361.262568
 20
256.951654
  0
VERTEX
  8
26 道路
 10
-369.395111
 20
262.028379
  0
VERTEX
  8
26 道路
 10
-367.927491
 20
264.504040
  0
VERTEX
  8
26 道路
 10
-359.728801
 20
259.479681
  0
SEQEND
  0
POLYLINE
  8
26 道路
 40
0.070556
 41
0.070556
 62
252
 66
1
 10
0
 20
0
 30
0
 70
1
  0
VERTEX
  8
26 道路
 10
-369.357559
 20
259.128279
  0
VERTEX
  8
26 道路
 10
-362.528304
 20
254.865980
  0
VERTEX
  8
26 道路
 10
-365.135913
 20
250.571641
  0
VERTEX
  8
26 道路
 10
-373.047624
 20
255.522619
  0
VERTEX
  8
26 道路
 10
-370.924399
 20
258.889188
  0
SEQEND
  0
POLYLINE
  8
26 道路
 40
0.070556
 41
0.070556
 62
252
 66
1
 10
0
 20
0
 30
0
 70
1
  0
VERTEX
  8
26 道路
 10
-365.649235
 20
249.725865
  0
VERTEX
  8
26 道路
 10
-368.090445
 20
245.703346
  0
VERTEX
  8
26 道路
 10
-376.077949
 20
250.715303
  0
VERTEX
  8
26 道路
 10
-373.575416
 20
254.684767
  0
SEQEND
  0
POLYLINE
  8
26 道路
 40
0.070556
 41
0.070556
 62
252
 66
1
 10
0
 20
0
 30
0
 70
1
  0
VERTEX
  8
26 道路
 10
-375.228384
 20
256.885508
  0
VERTEX
  8
26 道路
 10
-378.793391
 20
259.116565
  0
VERTEX
  8
26 道路
 10
-376.338056
 20
263.152176
  0
VERTEX
  8
26 道路
 10
-373.255709
 20
261.267008
  0
VERTEX
  8
26 道路
 10
-373.087932
 20
260.281015
  0
SEQEND
  0
POLYLINE
  8
26 道路
 40
0.070556
 41
0.070556
 62
252
 66
1
 10
0
 20
0
 30
0
 70
1
  0
VERTEX
  8
26 道路
 10
-375.755831
 20
256.049033
  0
VERTEX
  8
26 道路
 10
-378.256297
 20
252.083014
  0
VERTEX
  8
26 道路
 10
-381.741378
 20
254.269975
  0
VERTEX
  8
26 道路
 10
-379.308091
 20
258.271134
  0
SEQEND
  0
POLYLINE
  8
26 道路
 40
0.070556
 41
0.070556
 62
252
 66
1
 10
0
 20
0
 30
0
 70
1
  0
VERTEX
  8
26 道路
 10
-382.383892
 20
254.673053
  0
VERTEX
  8
26 道路
 10
-386.476002
 20
257.241044
  0
VERTEX
  8
26 道路
 10
-383.986216
 20
261.198105
  0
VERTEX
  8
26 道路
 10
-379.950261
 20
258.674212
  0
SEQEND
  0
POLYLINE
  8
26 道路
 40
0.070556
 41
0.070556
 62
252
 66
1
 10
0
 20
0
 30
0
 70
1
  0
VERTEX
  8
26 道路
 10
-387.936732
 20
258.158134
  0
VERTEX
  8
26 道路
 10
-395.126691
 20
262.669859
  0
VERTEX
  8
26 道路
 10
-392.721311
 20
266.662750
  0
VERTEX
  8
26 道路
 10
-385.447979
 20
262.112439
  0
SEQEND
  0
POLYLINE
  8
26 道路
 40
0.070556
 41
0.070556
 62
252
 66
1
 10
0
 20
0
 30
0
 70
1
  0
VERTEX
  8
26 道路
 10
-396.142312
 20
263.307206
  0
VERTEX
  8
26 道路
 10
-403.541046
 20
267.949846
  0
VERTEX
  8
26 道路
 10
-394.882088
 20
268.014614
  0
VERTEX
  8
26 道路
 10
-393.704547
 20
267.278048
  0
SEQEND
  0
POLYLINE
  8
26 道路
 40
0.070556
 41
0.070556
 62
252
 66
1
 10
0
 20
0
 30
0
 70
1
  0
VERTEX
  8
26 道路
 10
-396.859585
 20
262.139311
  0
VERTEX
  8
26 道路
 10
-398.320660
 20
259.758735
  0
VERTEX
  8
26 道路
 10
-410.596646
 20
267.898169
  0
VERTEX
  8
26 道路
 10
-406.088365
 20
267.931242
  0
SEQEND
  0
POLYLINE
  8
26 道路
 40
0.070556
 41
0.070556
 62
252
 66
1
 10
0
 20
0
 30
0
 70
1
  0
VERTEX
  8
26 道路
 10
-399.094777
 20
258.497822
  0
VERTEX
  8
26 道路
 10
-401.068830
 20
255.282150
  0
VERTEX
  8
26 道路
 10
-412.920033
 20
263.442255
  0
VERTEX
  8
26 道路
 10
-412.106296
 20
267.124396
  0
SEQEND
  0
POLYLINE
  8
26 道路
 40
0.070556
 41
0.070556
 62
252
 66
1
 10
0
 20
0
 30
0
 70
1
  0
VERTEX
  8
26 道路
 10
-401.586286
 20
254.397444
  0
VERTEX
  8
26 道路
 10
-403.681606
 20
250.061419
  0
VERTEX
  8
26 道路
 10
-414.475159
 20
259.124834
  0
VERTEX
  8
26 道路
 10
-413.271435
 20
262.444549
  0
SEQEND
  0
POLYLINE
  8
26 道路
 40
0.070556
 41
0.070556
 62
252
 66
1
 10
0
 20
0
 30
0
 70
1
  0
VERTEX
  8
26 道路
 10
-414.196104
 20
263.416072
  0
VERTEX
  8
26 道路
 10
-415.822888
 20
259.063511
  0
VERTEX
  8
26 道路
 10
-417.606081
 20
255.705210
  0
VERTEX
  8
26 道路
 10
-419.010311
 20
253.919951
  0
VERTEX
  8
26 道路
 10
-423.302238
 20
259.035950
  0
VERTEX
  8
26 道路
 10
-423.335655
 20
260.474631
  0
VERTEX
  8
26 道路
 10
-419.697267
 20
267.125774
  0
VERTEX
  8
26 道路
 10
-418.482174
 20
267.840291
  0
VERTEX
  8
26 道路
 10
-413.210112
 20
267.878188
  0
SEQEND
  0
POLYLINE
  8
26 道路
 40
0.070556
 41
0.070556
 62
252
 66
1
 10
0
 20
0
 30
0
 70
1
  0
VERTEX
  8
26 道路
 10
-424.847028
 20
261.459934
  0
VERTEX
  8
26 道路
 10
-425.386189
 20
262.307433
  0
VERTEX
  8
26 道路
 10
-424.946592
 20
262.715335
  0
VERTEX
  8
26 道路
 10
-422.602879
 20
265.561691
  0
SEQEND
  0
POLYLINE
  8
26 道路
 40
0.070556
 41
0.070556
 62
252
 66
1
 10
0
 20
0
 30
0
 70
1
  0
VERTEX
  8
26 道路
 10
-425.917082
 20
263.641382
  0
VERTEX
  8
26 道路
 10
-426.680520
 20
263.030908
  0
VERTEX
  8
26 道路
 10
-429.894125
 20
263.859803
  0
VERTEX
  8
26 道路
 10
-429.621272
 20
263.817772
  0
VERTEX
  8
26 道路
 10
-427.857372
 20
263.773675
  0
VERTEX
  8
26 道路
 10
-426.269862
 20
264.214650
  0
VERTEX
  8
26 道路
 10
-424.814644
 20
265.140697
  0
VERTEX
  8
26 道路
 10
-424.729205
 20
265.083508
  0
SEQEND
  0
POLYLINE
  8
26 道路
 40
0.070556
 41
0.070556
 62
252
 66
1
 10
0
 20
0
 30
0
  0
VERTEX
  8
26 道路
 10
-434.355552
 20
262.240253
  0
VERTEX
  8
26 道路
 10
-430.198673
 20
255.760332
  0
VERTEX
  8
26 道路
 10
-427.665823
 20
258.697639
  0
VERTEX
  8
26 道路
 10
-431.267349
 20
261.244959
  0
VERTEX
  8
26 道路
 10
-434.355552
 20
266.464311
  0
SEQEND
  0
POLYLINE
  8
26 道路
 40
0.070556
 41
0.070556
 62
252
 66
1
 10
0
 20
0
 30
0
  0
VERTEX
  8
26 道路
 10
-434.355552
 20
277.497299
  0
VERTEX
  8
26 道路
 10
-428.904687
 20
281.243175
  0
VERTEX
  8
26 道路
 10
-430.326832
 20
285.065188
  0
VERTEX
  8
26 道路
 10
-429.437303
 20
293.240451
  0
VERTEX
  8
26 道路
 10
-429.659857
 20
293.850926
  0
VERTEX
  8
26 道路
 10
-430.326832
 20
293.996310
  0
VERTEX
  8
26 道路
 10
-431.208782
 20
287.983202
  0
VERTEX
  8
26 道路
 10
-431.649412
 20
287.542227
  0
VERTEX
  8
26 道路
 10
-432.267122
 20
287.498130
  0
VERTEX
  8
26 道路
 10
-432.707752
 20
287.674520
  0
VERTEX
  8
26 道路
 10
-434.339704
 20
290.364467
  0
VERTEX
  8
26 道路
 10
-434.132308
 20
295.505960
  0
VERTEX
  8
26 道路
 10
-434.355552
 20
295.678905
  0
SEQEND
  0
POLYLINE
  8
26 道路
 40
0.070556
 41
0.070556
 62
252
 66
1
 10
0
 20
0
 30
0
 70
1
  0
VERTEX
  8
26 道路
 10
-433.501852
 20
290.629052
  0
VERTEX
  8
26 道路
 10
-433.341309
 20
295.042248
  0
VERTEX
  8
26 道路
 10
-431.470266
 20
294.331175
  0
VERTEX
  8
26 道路
 10
-431.914342
 20
289.482517
  0
VERTEX
  8
26 道路
 10
-432.178582
 20
289.394322
  0
VERTEX
  8
26 道路
 10
-432.575804
 20
289.350225
  0
SEQEND
  0
POLYLINE
  8
26 道路
 40
0.070556
 41
0.070556
 62
252
 66
1
 10
0
 20
0
 30
0
 70
1
  0
VERTEX
  8
26 道路
 10
-429.159626
 20
294.796266
  0
VERTEX
  8
26 道路
 10
-430.883563
 20
295.018821
  0
VERTEX
  8
26 道路
 10
-433.061566
 20
295.918685
  0
VERTEX
  8
26 道路
 10
-432.796292
 20
297.111385
  0
VERTEX
  8
26 道路
 10
-431.378282
 20
297.745975
  0
VERTEX
  8
26 道路
 10
-428.992193
 20
295.408119
  0
VERTEX
  8
26 道路
 10
-428.658706
 20
294.518590
  0
VERTEX
  8
26 道路
 10
-428.672142
 20
293.896402
  0
SEQEND
  0
POLYLINE
  8
26 道路
 40
0.070556
 41
0.070556
 62
252
 66
1
 10
0
 20
0
 30
0
  0
VERTEX
  8
26 道路
 10
-434.355552
 20
296.789266
  0
VERTEX
  8
26 道路
 10
-433.638967
 20
296.230124
  0
VERTEX
  8
26 道路
 10
-433.325462
 20
297.640555
  0
VERTEX
  8
26 道路
 10
-431.913653
 20
298.271700
  0
VERTEX
  8
26 道路
 10
-433.678242
 20
300.021820
  0
VERTEX
  8
26 道路
 10
-434.355552
 20
300.468996
  0
SEQEND
  0
POLYLINE
  8
26 道路
 40
0.070556
 41
0.070556
 62
252
 66
1
 10
0
 20
0
 30
0
  0
VERTEX
  8
26 道路
 10
-305.164691
 20
157.824263
  0
VERTEX
  8
26 道路
 10
-291.426597
 20
165.724262
  0
VERTEX
  8
26 道路
 10
-284.247662
 20
170.271127
  0
SEQEND
  0
POLYLINE
  8
26 道路
 40
0.070556
 41
0.070556
 62
252
 66
1
 10
0
 20
0
 30
0
  0
VERTEX
  8
26 道路
 10
-284.247662
 20
167.963243
  0
VERTEX
  8
26 道路
 10
-300.979907
 20
157.824263
  0
SEQEND
  0
POLYLINE
  8
26 道路
 40
0.070556
 41
0.070556
 62
252
 66
1
 10
0
 20
0
 30
0
  0
VERTEX
  8
26 道路
 10
-284.247662
 20
219.778495
  0
VERTEX
  8
26 道路
 10
-287.962532
 20
222.085001
  0
VERTEX
  8
26 道路
 10
-289.420850
 20
218.327756
  0
VERTEX
  8
26 道路
 10
-284.247662
 20
214.681444
  0
SEQEND
  0
POLYLINE
  8
26 道路
 40
0.070556
 41
0.070556
 62
252
 66
1
 10
0
 20
0
 30
0
 70
1
  0
VERTEX
  8
26 道路
 10
-290.227352
 20
218.860371
  0
VERTEX
  8
26 道路
 10
-303.936507
 20
227.588920
  0
VERTEX
  8
26 道路
 10
-301.951430
 20
230.770141
  0
VERTEX
  8
26 道路
 10
-288.780058
 20
222.592122
  0
SEQEND
  0
POLYLINE
  8
26 道路
 40
0.070556
 41
0.070556
 62
252
 66
1
 10
0
 20
0
 30
0
 70
1
  0
VERTEX
  8
26 道路
 10
-304.867722
 20
228.182169
  0
VERTEX
  8
26 道路
 10
-309.780114
 20
231.309991
  0
VERTEX
  8
26 道路
 10
-307.828111
 20
234.417831
  0
VERTEX
  8
26 道路
 10
-302.889191
 20
231.351677
  0
SEQEND
  0
POLYLINE
  8
26 道路
 40
0.070556
 41
0.070556
 62
252
 66
1
 10
0
 20
0
 30
0
 70
1
  0
VERTEX
  8
26 道路
 10
-305.269078
 20
227.401506
  0
VERTEX
  8
26 道路
 10
-307.961092
 20
221.714306
  0
VERTEX
  8
26 道路
 10
-313.593859
 20
225.238661
  0
VERTEX
  8
26 道路
 10
-310.245205
 20
230.569635
  0
SEQEND
  0
POLYLINE
  8
26 道路
 40
0.070556
 41
0.070556
 62
252
 66
1
 10
0
 20
0
 30
0
 70
1
  0
VERTEX
  8
26 道路
 10
-314.401739
 20
225.744404
  0
VERTEX
  8
26 道路
 10
-320.014868
 20
229.255668
  0
VERTEX
  8
26 道路
 10
-320.044841
 20
230.548965
  0
VERTEX
  8
26 道路
 10
-317.309762
 20
235.067580
  0
VERTEX
  8
26 道路
 10
-311.049296
 20
231.082269
  0
SEQEND
  0
POLYLINE
  8
26 道路
 40
0.070556
 41
0.070556
 62
252
 66
1
 10
0
 20
0
 30
0
 70
1
  0
VERTEX
  8
26 道路
 10
-315.674710
 20
223.662175
  0
VERTEX
  8
26 道路
 10
-318.593413
 20
218.754262
  0
VERTEX
  8
26 道路
 10
-325.163252
 20
222.675494
  0
VERTEX
  8
26 道路
 10
-322.466414
 20
226.915744
  0
VERTEX
  8
26 道路
 10
-321.295074
 20
227.178951
  0
SEQEND
  0
POLYLINE
  8
26 道路
 40
0.070556
 41
0.070556
 62
252
 66
1
 10
0
 20
0
 30
0
 70
1
  0
VERTEX
  8
26 道路
 10
-326.978828
 20
223.782066
  0
VERTEX
  8
26 道路
 10
-334.842308
 20
228.946296
  0
VERTEX
  8
26 道路
 10
-331.456103
 20
234.328258
  0
VERTEX
  8
26 道路
 10
-324.191040
 20
229.081689
  0
VERTEX
  8
26 道路
 10
-324.100777
 20
228.306882
  0
SEQEND
  0
POLYLINE
  8
26 道路
 40
0.070556
 41
0.070556
 62
252
 66
1
 10
0
 20
0
 30
0
 70
1
  0
VERTEX
  8
26 道路
 10
-339.714738
 20
227.895535
  0
VERTEX
  8
26 道路
 10
-346.839929
 20
232.366609
  0
VERTEX
  8
26 道路
 10
-341.113455
 20
241.302554
  0
VERTEX
  8
26 道路
 10
-334.352068
 20
236.419444
  0
SEQEND
  0
POLYLINE
  8
26 道路
 40
0.070556
 41
0.070556
 62
252
 66
1
 10
0
 20
0
 30
0
 70
1
  0
VERTEX
  8
26 道路
 10
-341.878960
 20
244.851024
  0
VERTEX
  8
26 道路
 10
-350.241638
 20
250.072099
  0
VERTEX
  8
26 道路
 10
-348.655161
 20
252.690733
  0
VERTEX
  8
26 道路
 10
-340.183274
 20
247.498252
  0
SEQEND
  0
POLYLINE
  8
26 道路
 40
0.070556
 41
0.070556
 62
252
 66
1
 10
0
 20
0
 30
0
 70
1
  0
VERTEX
  8
26 道路
 10
-345.822586
 20
260.143210
  0
VERTEX
  8
26 道路
 10
-354.560437
 20
265.222002
  0
VERTEX
  8
26 道路
 10
-353.594081
 20
266.814335
  0
VERTEX
  8
26 道路
 10
-344.902395
 20
261.662507
  0
SEQEND
  0
POLYLINE
  8
26 道路
 40
0.070556
 41
0.070556
 62
252
 66
1
 10
0
 20
0
 30
0
 70
1
  0
VERTEX
  8
26 道路
 10
-346.346244
 20
259.279864
  0
VERTEX
  8
26 道路
 10
-349.345907
 20
254.326475
  0
VERTEX
  8
26 道路
 10
-357.966279
 20
259.610595
  0
VERTEX
  8
26 道路
 10
-355.084094
 20
264.359689
  0
SEQEND
  0
POLYLINE
  8
26 道路
 40
0.070556
 41
0.070556
 62
252
 66
1
 10
0
 20
0
 30
0
 70
1
  0
VERTEX
  8
26 道路
 10
-355.803435
 20
265.944099
  0
VERTEX
  8
26 道路
 10
-364.184716
 20
270.816183
  0
VERTEX
  8
26 道路
 10
-363.186321
 20
272.500157
  0
VERTEX
  8
26 道路
 10
-354.830189
 20
267.547456
  0
SEQEND
  0
POLYLINE
  8
26 道路
 40
0.070556
 41
0.070556
 62
252
 66
1
 10
0
 20
0
 30
0
 70
1
  0
VERTEX
  8
26 道路
 10
-356.327093
 20
265.082130
  0
VERTEX
  8
26 道路
 10
-359.192741
 20
260.361631
  0
VERTEX
  8
26 道路
 10
-367.399355
 20
265.393569
  0
VERTEX
  8
26 道路
 10
-364.699416
 20
269.948703
  0
SEQEND
  0
POLYLINE
  8
26 道路
 40
0.070556
 41
0.070556
 62
252
 66
1
 10
0
 20
0
 30
0
 70
1
  0
VERTEX
  8
26 道路
 10
-366.058171
 20
270.739013
  0
VERTEX
  8
26 道路
 10
-367.239157
 20
268.745668
  0
VERTEX
  8
26 道路
 10
-375.876066
 20
273.784496
  0
VERTEX
  8
26 道路
 10
-374.641336
 20
275.727543
  0
SEQEND
  0
POLYLINE
  8
26 道路
 40
0.070556
 41
0.070556
 62
252
 66
1
 10
0
 20
0
 30
0
 70
1
  0
VERTEX
  8
26 道路
 10
-367.640513
 20
268.069736
  0
VERTEX
  8
26 道路
 10
-368.740539
 20
266.214885
  0
VERTEX
  8
26 道路
 10
-377.337484
 20
271.485570
  0
VERTEX
  8
26 道路
 10
-376.298437
 20
273.120967
  0
SEQEND
  0
POLYLINE
  8
26 道路
 40
0.070556
 41
0.070556
 62
252
 66
1
 10
0
 20
0
 30
0
 70
1
  0
VERTEX
  8
26 道路
 10
-369.266953
 20
265.326045
  0
VERTEX
  8
26 道路
 10
-370.483079
 20
263.274822
  0
VERTEX
  8
26 道路
 10
-379.174421
 20
268.594772
  0
VERTEX
  8
26 道路
 10
-377.891804
 20
270.612233
  0
SEQEND
  0
POLYLINE
  8
26 道路
 40
0.070556
 41
0.070556
 62
252
 66
1
 10
0
 20
0
 30
0
 70
1
  0
VERTEX
  8
26 道路
 10
-376.984704
 20
263.548364
  0
VERTEX
  8
26 道路
 10
-379.436250
 20
259.518266
  0
VERTEX
  8
26 道路
 10
-383.459458
 20
262.035269
  0
VERTEX
  8
26 道路
 10
-380.972083
 20
265.988885
  0
SEQEND
  0
POLYLINE
  8
26 道路
 40
0.070556
 41
0.070556
 62
252
 66
1
 10
0
 20
0
 30
0
 70
1
  0
VERTEX
  8
26 道路
 10
-384.921565
 20
262.950292
  0
VERTEX
  8
26 道路
 10
-392.210744
 20
267.510249
  0
VERTEX
  8
26 道路
 10
-391.892760
 20
268.036663
  0
VERTEX
  8
26 道路
 10
-390.638393
 20
268.598562
  0
VERTEX
  8
26 道路
 10
-389.403663
 20
269.186643
  0
VERTEX
  8
26 道路
 10
-388.168933
 20
270.833065
  0
VERTEX
  8
26 道路
 10
-382.361843
 20
267.018286
  0
SEQEND
  0
POLYLINE
  8
26 道路
 40
0.070556
 41
0.070556
 62
252
 66
1
 10
0
 20
0
 30
0
 70
1
  0
VERTEX
  8
26 道路
 10
-392.667567
 20
271.534835
  0
VERTEX
  8
26 道路
 10
-393.725907
 20
270.917470
  0
VERTEX
  8
26 道路
 10
-420.366998
 20
270.831342
  0
VERTEX
  8
26 道路
 10
-425.833021
 20
280.725030
  0
VERTEX
  8
26 道路
 10
-424.817400
 20
292.126300
  0
VERTEX
  8
26 道路
 10
-424.505962
 20
292.465989
  0
VERTEX
  8
26 道路
 10
-423.917880
 20
292.760202
  0
VERTEX
  8
26 道路
 10
-423.356326
 20
292.836683
  0
VERTEX
  8
26 道路
 10
-391.696733
 20
272.831922
  0
SEQEND
  0
POLYLINE
  8
26 道路
 40
0.070556
 41
0.070556
 62
252
 66
1
 10
0
 20
0
 30
0
  0
VERTEX
  8
26 道路
 10
-434.355552
 20
270.373830
  0
VERTEX
  8
26 道路
 10
-431.310068
 20
265.247496
  0
VERTEX
  8
26 道路
 10
-429.532732
 20
265.008405
  0
VERTEX
  8
26 道路
 10
-428.298002
 20
265.008405
  0
VERTEX
  8
26 道路
 10
-426.710492
 20
265.449380
  0
VERTEX
  8
26 道路
 10
-425.608399
 20
266.199037
  0
VERTEX
  8
26 道路
 10
-423.359082
 20
267.962937
  0
VERTEX
  8
26 道路
 10
-422.653522
 20
268.933082
  0
VERTEX
  8
26 道路
 10
-422.256300
 20
269.565606
  0
VERTEX
  8
26 道路
 10
-427.515616
 20
279.125117
  0
VERTEX
  8
26 道路
 10
-434.355552
 20
274.505215
  0
SEQEND
  0
POLYLINE
  8
26 道路
 40
0.070556
 41
0.070556
 62
252
 66
1
 10
0
 20
0
 30
0
  0
VERTEX
  8
26 道路
 10
-434.355552
 20
301.406068
  0
VERTEX
  8
26 道路
 10
-433.162852
 20
300.634362
  0
VERTEX
  8
26 道路
 10
-431.120242
 20
298.434310
  0
VERTEX
  8
26 道路
 10
-428.214286
 20
295.463241
  0
VERTEX
  8
26 道路
 10
-427.824988
 20
294.296035
  0
VERTEX
  8
26 道路
 10
-427.824988
 20
291.238149
  0
VERTEX
  8
26 道路
 10
-428.214286
 20
285.122377
  0
VERTEX
  8
26 道路
 10
-427.810518
 20
284.573914
  0
VERTEX
  8
26 道路
 10
-427.047080
 20
293.137098
  0
VERTEX
  8
26 道路
 10
-427.372299
 20
294.862412
  0
VERTEX
  8
26 道路
 10
-428.118512
 20
296.163289
  0
VERTEX
  8
26 道路
 10
-431.123343
 20
298.968992
  0
VERTEX
  8
26 道路
 10
-434.355552
 20
302.831313
  0
SEQEND
  0
POLYLINE
  8
26 道路
 40
0.070556
 41
0.070556
 62
252
 66
1
 10
0
 20
0
 30
0
  0
VERTEX
  8
26 道路
 10
-284.247662
 20
228.550797
  0
VERTEX
  8
26 道路
 10
-285.293599
 20
229.294942
  0
VERTEX
  8
26 道路
 10
-287.505020
 20
223.263920
  0
VERTEX
  8
26 道路
 10
-284.247662
 20
221.241636
  0
SEQEND
  0
POLYLINE
  8
26 道路
 40
0.070556
 41
0.070556
 62
252
 66
1
 10
0
 20
0
 30
0
  0
VERTEX
  8
26 道路
 10
-284.247662
 20
241.750419
  0
VERTEX
  8
26 道路
 10
-291.079674
 20
246.650064
  0
VERTEX
  8
26 道路
 10
-291.746304
 20
245.763291
  0
VERTEX
  8
26 道路
 10
-284.247662
 20
240.487783
  0
SEQEND
  0
POLYLINE
  8
26 道路
 40
0.070556
 41
0.070556
 62
252
 66
1
 10
0
 20
0
 30
0
  0
VERTEX
  8
26 道路
 10
-284.247662
 20
239.840790
  0
VERTEX
  8
26 道路
 10
-292.064633
 20
245.340231
  0
VERTEX
  8
26 道路
 10
-294.734599
 20
241.789004
  0
VERTEX
  8
26 道路
 10
-287.336554
 20
236.539335
  0
VERTEX
  8
26 道路
 10
-284.247662
 20
235.971924
  0
SEQEND
  0
POLYLINE
  8
26 道路
 40
0.070556
 41
0.070556
 62
252
 66
1
 10
0
 20
0
 30
0
  0
VERTEX
  8
26 道路
 10
-284.247662
 20
233.482827
  0
VERTEX
  8
26 道路
 10
-295.159037
 20
241.224694
  0
VERTEX
  8
26 道路
 10
-295.878377
 20
240.262128
  0
VERTEX
  8
26 道路
 10
-284.247662
 20
231.931146
  0
SEQEND
  0
POLYLINE
  8
26 道路
 40
0.070556
 41
0.070556
 62
252
 66
1
 10
0
 20
0
 30
0
 70
1
  0
VERTEX
  8
26 道路
 10
-286.078397
 20
229.884746
  0
VERTEX
  8
26 道路
 10
-288.322202
 20
223.771041
  0
VERTEX
  8
26 道路
 10
-301.293413
 20
231.824347
  0
VERTEX
  8
26 道路
 10
-297.396296
 20
238.071723
  0
SEQEND
  0
POLYLINE
  8
26 道路
 40
0.070556
 41
0.070556
 62
252
 66
1
 10
0
 20
0
 30
0
 70
1
  0
VERTEX
  8
26 道路
 10
-302.230829
 20
232.405883
  0
VERTEX
  8
26 道路
 10
-314.362809
 20
239.938287
  0
VERTEX
  8
26 道路
 10
-310.243827
 20
246.745839
  0
VERTEX
  8
26 道路
 10
-298.302362
 20
238.703557
  0
SEQEND
  0
POLYLINE
  8
26 道路
 40
0.070556
 41
0.070556
 62
252
 66
1
 10
0
 20
0
 30
0
 70
1
  0
VERTEX
  8
26 道路
 10
-308.638058
 20
234.920818
  0
VERTEX
  8
26 道路
 10
-310.584894
 20
231.821591
  0
VERTEX
  8
26 道路
 10
-316.857763
 20
235.815171
  0
VERTEX
  8
26 道路
 10
-315.006357
 20
238.874435
  0
SEQEND
  0
POLYLINE
  8
26 道路
 40
0.070556
 41
0.070556
 62
252
 66
1
 10
0
 20
0
 30
0
 70
1
  0
VERTEX
  8
26 道路
 10
-314.668736
 20
243.388227
  0
VERTEX
  8
26 道路
 10
-322.131548
 20
231.448829
  0
VERTEX
  8
26 道路
 10
-323.116852
 20
231.328250
  0
VERTEX
  8
26 道路
 10
-330.149025
 20
236.407387
  0
VERTEX
  8
26 道路
 10
-322.584237
 20
248.433257
  0
VERTEX
  8
26 道路
 10
-317.907490
 20
245.659938
  0
VERTEX
  8
26 道路
 10
-316.165295
 20
245.233088
  0
VERTEX
  8
26 道路
 10
-314.600178
 20
245.327828
  0
SEQEND
  0
POLYLINE
  8
26 道路
 40
0.070556
 41
0.070556
 62
252
 66
1
 10
0
 20
0
 30
0
 70
1
  0
VERTEX
  8
26 道路
 10
-333.044646
 20
238.498228
  0
VERTEX
  8
26 道路
 10
-339.788463
 20
243.369624
  0
VERTEX
  8
26 道路
 10
-332.707369
 20
254.433273
  0
VERTEX
  8
26 道路
 10
-325.651080
 20
250.250212
  0
SEQEND
  0
POLYLINE
  8
26 道路
 40
0.070556
 41
0.070556
 62
252
 66
1
 10
0
 20
0
 30
0
 70
1
  0
VERTEX
  8
26 道路
 10
-333.559002
 20
256.910312
  0
VERTEX
  8
26 道路
 10
-365.056331
 20
275.582159
  0
VERTEX
  8
26 道路
 10
-361.055516
 20
282.533716
  0
VERTEX
  8
26 道路
 10
-367.749034
 20
286.589308
  0
VERTEX
  8
26 道路
 10
-358.559529
 20
301.082227
  0
VERTEX
  8
26 道路
 10
-356.209959
 20
301.680299
  0
VERTEX
  8
26 道路
 10
-338.230581
 20
289.209664
  0
VERTEX
  8
26 道路
 10
-338.192340
 20
288.174062
  0
VERTEX
  8
26 道路
 10
-335.663969
 20
274.122118
  0
VERTEX
  8
26 道路
 10
-331.018917
 20
261.127825
  0
SEQEND
  0
POLYLINE
  8
26 道路
 40
0.070556
 41
0.070556
 62
252
 66
1
 10
0
 20
0
 30
0
  0
VERTEX
  8
26 道路
 10
-354.261400
 20
307.860495
  0
VERTEX
  8
26 道路
 10
-355.976724
 20
305.155734
  0
VERTEX
  8
26 道路
 10
-355.597417
 20
302.796517
  0
VERTEX
  8
26 道路
 10
-339.564530
 20
291.675679
  0
VERTEX
  8
26 道路
 10
-340.279737
 20
294.289145
  0
VERTEX
  8
26 道路
 10
-342.396417
 20
299.757235
  0
VERTEX
  8
26 道路
 10
-344.865877
 20
304.960740
  0
VERTEX
  8
26 道路
 10
-347.069718
 20
307.860495
  0
SEQEND
  0
POLYLINE
  8
26 道路
 40
0.070556
 41
0.070556
 62
252
 66
1
 10
0
 20
0
 30
0
  0
VERTEX
  8
26 道路
 10
-345.459470
 20
307.860495
  0
VERTEX
  8
26 道路
 10
-343.542607
 20
305.401715
  0
VERTEX
  8
26 道路
 10
-341.073147
 20
300.198210
  0
VERTEX
  8
26 道路
 10
-338.956467
 20
294.730120
  0
VERTEX
  8
26 道路
 10
-338.323599
 20
292.469434
  0
VERTEX
  8
26 道路
 10
-337.918798
 20
292.543160
  0
VERTEX
  8
26 道路
 10
-338.525483
 20
295.883545
  0
VERTEX
  8
26 道路
 10
-340.532608
 20
302.238408
  0
VERTEX
  8
26 道路
 10
-342.472898
 20
306.051464
  0
VERTEX
  8
26 道路
 10
-343.980137
 20
307.860495
  0
SEQEND
  0
POLYLINE
  8
26 道路
 40
0.070556
 41
0.070556
 62
252
 66
1
 10
0
 20
0
 30
0
  0
VERTEX
  8
26 道路
 10
-341.984381
 20
307.860495
  0
VERTEX
  8
26 道路
 10
-341.536171
 20
307.322712
  0
VERTEX
  8
26 道路
 10
-340.661800
 20
305.679391
  0
VERTEX
  8
26 道路
 10
-339.193836
 20
307.860495
  0
SEQEND
  0
POLYLINE
  8
26 道路
 40
0.070556
 41
0.070556
 62
252
 66
1
 10
0
 20
0
 30
0
  0
VERTEX
  8
26 道路
 10
-357.190095
 20
307.860495
  0
VERTEX
  8
26 道路
 10
-357.970069
 20
306.630933
  0
VERTEX
  8
26 道路
 10
-359.902780
 20
306.427671
  0
VERTEX
  8
26 道路
 10
-362.115579
 20
307.860495
  0
SEQEND
  0
POLYLINE
  8
26 道路
 40
0.070556
 41
0.070556
 62
252
 66
1
 10
0
 20
0
 30
0
  0
VERTEX
  8
26 道路
 10
-386.538359
 20
307.860495
  0
VERTEX
  8
26 道路
 10
-388.996105
 20
307.785736
  0
VERTEX
  8
26 道路
 10
-391.752544
 20
307.340627
  0
VERTEX
  8
26 道路
 10
-425.953600
 20
299.533991
  0
VERTEX
  8
26 道路
 10
-428.430639
 20
301.888384
  0
VERTEX
  8
26 道路
 10
-431.914342
 20
306.283665
  0
VERTEX
  8
26 道路
 10
-432.898612
 20
307.860495
  0
SEQEND
  0
POLYLINE
  8
26 道路
 40
0.070556
 41
0.070556
 62
252
 66
1
 10
0
 20
0
 30
0
  0
VERTEX
  8
26 道路
 10
-385.905146
 20
307.860495
  0
VERTEX
  8
26 道路
 10
-382.810742
 20
307.514950
  0
VERTEX
  8
26 道路
 10
-374.080126
 20
305.839934
  0
VERTEX
  8
26 道路
 10
-366.583896
 20
304.428814
  0
VERTEX
  8
26 道路
 10
-366.714465
 20
303.735656
  0
VERTEX
  8
26 道路
 10
-374.212074
 20
305.146776
  0
VERTEX
  8
26 道路
 10
-382.915818
 20
306.818347
  0
VERTEX
  8
26 道路
 10
-386.066722
 20
307.168371
  0
VERTEX
  8
26 道路
 10
-388.928926
 20
307.081554
  0
VERTEX
  8
26 道路
 10
-391.617840
 20
306.648158
  0
VERTEX
  8
26 道路
 10
-425.339680
 20
298.950388
  0
VERTEX
  8
26 道路
 10
-424.322682
 20
297.983689
  0
VERTEX
  8
26 道路
 10
-380.933498
 20
270.433086
  0
VERTEX
  8
26 道路
 10
-373.793837
 20
281.688284
  0
VERTEX
  8
26 道路
 10
-380.744705
 20
285.682553
  0
VERTEX
  8
26 道路
 10
-379.090360
 20
289.150408
  0
VERTEX
  8
26 道路
 10
-385.410427
 20
292.989647
  0
VERTEX
  8
26 道路
 10
-384.212560
 20
294.379407
  0
VERTEX
  8
26 道路
 10
-382.452105
 20
295.073254
  0
VERTEX
  8
26 道路
 10
-369.582181
 20
288.327025
  0
VERTEX
  8
26 道路
 10
-360.613507
 20
302.463719
  0
VERTEX
  8
26 道路
 10
-360.958708
 20
304.473600
  0
VERTEX
  8
26 道路
 10
-366.188741
 20
307.860495
  0
SEQEND
  0
POLYLINE
  8
26 道路
 40
0.070556
 41
0.070556
 62
252
 66
1
 10
0
 20
0
 30
0
  0
VERTEX
  8
26 道路
 10
-284.247662
 20
242.618588
  0
VERTEX
  8
26 道路
 10
-291.228847
 20
247.625033
  0
VERTEX
  8
26 道路
 10
-291.435899
 20
247.349768
  0
VERTEX
  8
26 道路
 10
-296.453368
 20
240.671408
  0
VERTEX
  8
26 道路
 10
-311.034826
 20
250.469321
  0
VERTEX
  8
26 道路
 10
-299.269062
 20
268.771162
  0
VERTEX
  8
26 道路
 10
-300.562359
 20
269.594545
  0
VERTEX
  8
26 道路
 10
-315.016692
 20
247.111021
  0
VERTEX
  8
26 道路
 10
-316.129465
 20
247.062100
  0
VERTEX
  8
26 道路
 10
-317.480985
 20
247.379740
  0
VERTEX
  8
26 道路
 10
-332.076568
 20
256.031808
  0
VERTEX
  8
26 道路
 10
-329.078627
 20
261.010002
  0
VERTEX
  8
26 道路
 10
-333.723679
 20
274.004295
  0
VERTEX
  8
26 道路
 10
-336.252050
 20
288.056928
  0
VERTEX
  8
26 道路
 10
-336.385376
 20
291.668100
  0
VERTEX
  8
26 道路
 10
-337.321759
 20
296.819239
  0
VERTEX
  8
26 道路
 10
-339.328540
 20
303.174791
  0
VERTEX
  8
26 道路
 10
-340.119194
 20
304.661015
  0
VERTEX
  8
26 道路
 10
-337.965652
 20
307.860495
  0
SEQEND
  0
POLYLINE
  8
29 川・池
 40
0.035278
 41
0.035278
 62
150
 66
1
 10
0
 20
0
 30
0
  0
VERTEX
  8
29 川・池
 10
-284.247662
 20
170.065109
  0
VERTEX
  8
29 川・池
 10
-304.837405
 20
157.824263
  0
SEQEND
  0
POLYLINE
  8
29 川・池
 40
0.035278
 41
0.035278
 62
150
 66
1
 10
0
 20
0
 30
0
  0
VERTEX
  8
29 川・池
 10
-284.247662
 20
168.272959
  0
VERTEX
  8
29 川・池
 10
-301.309260
 20
157.824263
  0
SEQEND
  0
POLYLINE
  8
29 川・池
 40
0.035278
 41
0.035278
 62
150
 66
1
 10
0
 20
0
 30
0
  0
VERTEX
  8
29 川・池
 10
-434.355552
 20
238.530612
  0
VERTEX
  8
29 川・池
 10
-431.560873
 20
241.669114
  0
VERTEX
  8
29 川・池
 10
-428.292146
 20
244.363885
  0
VERTEX
  8
29 川・池
 10
-426.614374
 20
245.526956
  0
VERTEX
  8
29 川・池
 10
-425.376198
 20
246.639040
  0
VERTEX
  8
29 川・池
 10
-424.098749
 20
247.782130
  0
VERTEX
  8
29 川・池
 10
-424.068432
 20
247.811758
  0
VERTEX
  8
29 川・池
 10
-423.650195
 20
248.422233
  0
VERTEX
  8
29 川・池
 10
-422.941190
 20
249.383420
  0
VERTEX
  8
29 川・池
 10
-420.967137
 20
252.127112
  0
VERTEX
  8
29 川・池
 10
-419.162585
 20
254.631023
  0
VERTEX
  8
29 川・池
 10
-418.095977
 20
255.898482
  0
VERTEX
  8
29 川・池
 10
-416.038553
 20
259.279520
  0
VERTEX
  8
29 川・池
 10
-414.583335
 20
263.380243
  0
VERTEX
  8
29 川・池
 10
-413.833678
 20
267.481655
  0
VERTEX
  8
29 川・池
 10
-413.767876
 20
269.511862
  0
VERTEX
  8
29 川・池
 10
-419.353789
 20
269.508417
  0
VERTEX
  8
29 川・池
 10
-419.434060
 20
267.217070
  0
VERTEX
  8
29 川・池
 10
-420.358730
 20
263.258285
  0
VERTEX
  8
29 川・池
 10
-421.153863
 20
260.602445
  0
VERTEX
  8
29 川・池
 10
-422.727248
 20
257.354044
  0
VERTEX
  8
29 川・池
 10
-424.292365
 20
254.891474
  0
VERTEX
  8
29 川・池
 10
-427.612768
 20
249.885029
  0
VERTEX
  8
29 川・池
 10
-429.517229
 20
247.321862
  0
VERTEX
  8
29 川・池
 10
-434.355552
 20
242.299570
  0
SEQEND
  0
POLYLINE
  8
29 川・池
 40
0.035278
 41
0.035278
 62
150
 66
1
 10
0
 20
0
 30
0
  0
VERTEX
  8
29 川・池
 10
-431.148837
 20
307.860495
  0
VERTEX
  8
29 川・池
 10
-431.248401
 20
307.685828
  0
VERTEX
  8
29 川・池
 10
-431.448217
 20
307.285505
  0
VERTEX
  8
29 川・池
 10
-431.448217
 20
306.805256
  0
VERTEX
  8
29 川・池
 10
-431.408599
 20
306.325006
  0
VERTEX
  8
29 川・池
 10
-431.048239
 20
305.925373
  0
VERTEX
  8
29 川・池
 10
-430.448100
 20
305.485087
  0
VERTEX
  8
29 川・池
 10
-429.927887
 20
305.405505
  0
VERTEX
  8
29 川・池
 10
-429.367711
 20
305.525050
  0
VERTEX
  8
29 川・池
 10
-428.767572
 20
305.844757
  0
VERTEX
  8
29 川・池
 10
-427.630683
 20
307.860495
  0
SEQEND
  0
POLYLINE
  8
30 公園・緑地
 40
0.105834
 41
0.105834
 62
3
 66
1
 10
0
 20
0
 30
0
  0
VERTEX
  8
30 公園・緑地
 10
-335.039025
 20
307.860495
  0
VERTEX
  8
30 公園・緑地
 10
-338.990574
 20
302.102671
  0
VERTEX
  8
30 公園・緑地
 10
-337.321759
 20
296.819239
  0
VERTEX
  8
30 公園・緑地
 10
-336.385376
 20
291.668100
  0
VERTEX
  8
30 公園・緑地
 10
-336.252050
 20
288.056928
  0
VERTEX
  8
30 公園・緑地
 10
-335.692908
 20
284.948743
  0
VERTEX
  8
30 公園・緑地
 10
-325.181166
 20
286.660966
  0
VERTEX
  8
30 公園・緑地
 10
-318.057353
 20
282.619844
  0
VERTEX
  8
30 公園・緑地
 10
-310.635881
 20
282.231924
  0
VERTEX
  8
30 公園・緑地
 10
-314.003828
 20
297.035592
  0
VERTEX
  8
30 公園・緑地
 10
-311.659770
 20
297.688098
  0
VERTEX
  8
30 公園・緑地
 10
-309.851773
 20
301.613120
  0
VERTEX
  8
30 公園・緑地
 10
-310.557333
 20
301.921458
  0
VERTEX
  8
30 公園・緑地
 10
-312.100745
 20
298.570048
  0
VERTEX
  8
30 公園・緑地
 10
-314.614303
 20
297.864488
  0
VERTEX
  8
30 公園・緑地
 10
-316.968351
 20
307.860495
  0
SEQEND
  0
POLYLINE
  8
30 公園・緑地
 40
0.105834
 41
0.105834
 62
3
 66
1
 10
0
 20
0
 30
0
 70
1
  0
VERTEX
  8
30 公園・緑地
 10
-389.798129
 20
195.842165
  0
VERTEX
  8
30 公園・緑地
 10
-393.186401
 20
198.172442
  0
VERTEX
  8
30 公園・緑地
 10
-397.798724
 20
194.200911
  0
VERTEX
  8
30 公園・緑地
 10
-395.166310
 20
191.287031
  0
SEQEND
  0
POLYLINE
  8
30 公園・緑地
 40
0.105834
 41
0.105834
 62
3
 66
1
 10
0
 20
0
 30
0
 70
1
  0
VERTEX
  8
30 公園・緑地
 10
-408.810697
 20
184.719949
  0
VERTEX
  8
30 公園・緑地
 10
-421.218631
 20
174.038018
  0
VERTEX
  8
30 公園・緑地
 10
-418.728500
 20
171.292949
  0
VERTEX
  8
30 公園・緑地
 10
-406.259243
 20
181.873593
  0
SEQEND
  0
POLYLINE
  8
30 公園・緑地
 40
0.105834
 41
0.105834
 62
3
 66
1
 10
0
 20
0
 30
0
  0
VERTEX
  8
30 公園・緑地
 10
-395.419526
 20
307.860495
  0
VERTEX
  8
30 公園・緑地
 10
-395.489118
 20
305.846480
  0
VERTEX
  8
30 公園・緑地
 10
-394.783558
 20
304.964530
  0
VERTEX
  8
30 公園・緑地
 10
-388.080738
 20
305.934675
  0
VERTEX
  8
30 公園・緑地
 10
-384.288353
 20
305.934675
  0
VERTEX
  8
30 公園・緑地
 10
-379.261238
 20
304.964530
  0
VERTEX
  8
30 公園・緑地
 10
-378.643873
 20
306.111065
  0
VERTEX
  8
30 公園・緑地
 10
-379.173043
 20
307.522185
  0
VERTEX
  8
30 公園・緑地
 10
-380.338181
 20
307.860495
  0
SEQEND
  0
POLYLINE
  8
30 公園・緑地
 40
0.105834
 41
0.105834
 62
3
 66
1
 10
0
 20
0
 30
0
 70
1
  0
VERTEX
  8
30 公園・緑地
 10
-396.216382
 20
190.396124
  0
VERTEX
  8
30 公園・緑地
 10
-398.842595
 20
193.302425
  0
VERTEX
  8
30 公園・緑地
 10
-407.573900
 20
185.784490
  0
VERTEX
  8
30 公園・緑地
 10
-405.014522
 20
182.929866
  0
SEQEND
  0
POLYLINE
  8
30 公園・緑地
 40
0.105834
 41
0.105834
 62
3
 66
1
 10
0
 20
0
 30
0
  0
VERTEX
  8
30 公園・緑地
 10
-376.937162
 20
307.860495
  0
VERTEX
  8
30 公園・緑地
 10
-376.893753
 20
307.825699
  0
VERTEX
  8
30 公園・緑地
 10
-377.167985
 20
305.839245
  0
VERTEX
  8
30 公園・緑地
 10
-370.044171
 20
301.455678
  0
VERTEX
  8
30 公園・緑地
 10
-370.455518
 20
300.976806
  0
VERTEX
  8
30 公園・緑地
 10
-365.866278
 20
298.031231
  0
VERTEX
  8
30 公園・緑地
 10
-365.455964
 20
298.510792
  0
VERTEX
  8
30 公園・緑地
 10
-365.222385
 20
298.354383
  0
VERTEX
  8
30 公園・緑地
 10
-364.767630
 20
298.995864
  0
VERTEX
  8
30 公園・緑地
 10
-367.942650
 20
301.230712
  0
VERTEX
  8
30 公園・緑地
 10
-364.449990
 20
306.734286
  0
VERTEX
  8
30 公園・緑地
 10
-366.189085
 20
307.860495
  0
SEQEND
  0
POLYLINE
  8
30 公園・緑地
 40
0.105834
 41
0.105834
 62
3
 66
1
 10
0
 20
0
 30
0
 70
1
  0
VERTEX
  8
30 公園・緑地
 10
-358.813778
 20
176.326265
  0
VERTEX
  8
30 公園・緑地
 10
-358.595358
 20
178.515293
  0
VERTEX
  8
30 公園・緑地
 10
-366.478475
 20
182.358666
  0
VERTEX
  8
30 公園・緑地
 10
-367.878571
 20
181.205240
  0
VERTEX
  8
30 公園・緑地
 10
-361.127519
 20
174.631268
  0
SEQEND
  0
POLYLINE
  8
30 公園・緑地
 40
0.105834
 41
0.105834
 62
3
 66
1
 10
0
 20
0
 30
0
 70
1
  0
VERTEX
  8
30 公園・緑地
 10
-399.281503
 20
305.405505
  0
VERTEX
  8
30 公園・緑地
 10
-400.075258
 20
306.463845
  0
VERTEX
  8
30 公園・緑地
 10
-413.833678
 20
302.936045
  0
VERTEX
  8
30 公園・緑地
 10
-414.274653
 20
301.524925
  0
VERTEX
  8
30 公園・緑地
 10
-413.304508
 20
300.290195
  0
VERTEX
  8
30 公園・緑地
 10
-398.840528
 20
303.906190
  0
SEQEND
  0
POLYLINE
  8
30 公園・緑地
 40
0.105834
 41
0.105834
 62
3
 66
1
 10
0
 20
0
 30
0
  0
VERTEX
  8
30 公園・緑地
 10
-434.355552
 20
229.334561
  0
VERTEX
  8
30 公園・緑地
 10
-432.475207
 20
230.788745
  0
VERTEX
  8
30 公園・緑地
 10
-434.355552
 20
235.350080
  0
SEQEND
  0
POLYLINE
  8
30 公園・緑地
 40
0.105834
 41
0.105834
 62
3
 66
1
 10
0
 20
0
 30
0
 70
1
  0
VERTEX
  8
30 公園・緑地
 10
-423.603341
 20
172.823959
  0
VERTEX
  8
30 公園・緑地
 10
-432.221646
 20
168.085890
  0
VERTEX
  8
30 公園・緑地
 10
-430.771941
 20
165.489994
  0
VERTEX
  8
30 公園・緑地
 10
-421.550051
 20
170.561206
  0
SEQEND
  0
POLYLINE
  8
30 公園・緑地
 40
0.105834
 41
0.105834
 62
3
 66
1
 10
0
 20
0
 30
0
 70
1
  0
VERTEX
  8
30 公園・緑地
 10
-355.184347
 20
219.344755
  0
VERTEX
  8
30 公園・緑地
 10
-371.198286
 20
194.353875
  0
VERTEX
  8
30 公園・緑地
 10
-351.784361
 20
184.580077
  0
VERTEX
  8
30 公園・緑地
 10
-337.033058
 20
207.968289
  0
VERTEX
  8
30 公園・緑地
 10
-337.593234
 20
209.956810
  0
VERTEX
  8
30 公園・緑地
 10
-353.604761
 20
219.547328
  0
SEQEND
  0
POLYLINE
  8
30 公園・緑地
 40
0.105834
 41
0.105834
 62
3
 66
1
 10
0
 20
0
 30
0
  0
VERTEX
  8
30 公園・緑地
 10
-419.083347
 20
307.860495
  0
VERTEX
  8
30 公園・緑地
 10
-421.242058
 20
301.201428
  0
VERTEX
  8
30 公園・緑地
 10
-419.889505
 20
301.407102
  0
VERTEX
  8
30 公園・緑地
 10
-419.418902
 20
300.819365
  0
VERTEX
  8
30 公園・緑地
 10
-419.624920
 20
299.643202
  0
VERTEX
  8
30 公園・緑地
 10
-421.888362
 20
299.172943
  0
VERTEX
  8
30 公園・緑地
 10
-422.336227
 20
296.722776
  0
VERTEX
  8
30 公園・緑地
 10
-424.322682
 20
297.983689
  0
VERTEX
  8
30 公園・緑地
 10
-428.430639
 20
301.888384
  0
VERTEX
  8
30 公園・緑地
 10
-431.914342
 20
306.283665
  0
VERTEX
  8
30 公園・緑地
 10
-432.898612
 20
307.860495
  0
SEQEND
  0
POLYLINE
  8
30 公園・緑地
 40
0.105834
 41
0.105834
 62
3
 66
1
 10
0
 20
0
 30
0
  0
VERTEX
  8
30 公園・緑地
 10
-434.355552
 20
163.519731
  0
VERTEX
  8
30 公園・緑地
 10
-432.047323
 20
164.788568
  0
VERTEX
  8
30 公園・緑地
 10
-433.497718
 20
167.384119
  0
VERTEX
  8
30 公園・緑地
 10
-434.355552
 20
166.912483
  0
SEQEND
  0
POLYLINE
  8
30 公園・緑地
 40
0.105834
 41
0.105834
 62
3
 66
1
 10
0
 20
0
 30
0
  0
VERTEX
  8
30 公園・緑地
 10
-284.247662
 20
244.829665
  0
VERTEX
  8
30 公園・緑地
 10
-284.400625
 20
245.061865
  0
VERTEX
  8
30 公園・緑地
 10
-284.851246
 20
245.310603
  0
VERTEX
  8
30 公園・緑地
 10
-285.421758
 20
245.489060
  0
VERTEX
  8
30 公園・緑地
 10
-285.851364
 20
245.458743
  0
VERTEX
  8
30 公園・緑地
 10
-286.320589
 20
245.187957
  0
VERTEX
  8
30 公園・緑地
 10
-286.670268
 20
244.707018
  0
VERTEX
  8
30 公園・緑地
 10
-291.740792
 20
248.344373
  0
VERTEX
  8
30 公園・緑地
 10
-297.016644
 20
241.053816
  0
VERTEX
  8
30 公園・緑地
 10
-296.453368
 20
240.671408
  0
VERTEX
  8
30 公園・緑地
 10
-295.878377
 20
240.262128
  0
VERTEX
  8
30 公園・緑地
 10
-284.247662
 20
231.934246
  0
SEQEND
  0
POLYLINE
  8
30 公園・緑地
 40
0.105834
 41
0.105834
 62
3
 66
1
 10
0
 20
0
 30
0
  0
VERTEX
  8
30 公園・緑地
 10
-284.247662
 20
243.166706
  0
VERTEX
  8
30 公園・緑地
 10
-284.297272
 20
243.091947
  0
VERTEX
  8
30 公園・緑地
 10
-284.247662
 20
243.056463
  0
SEQEND
  0
POLYLINE
  8
31 地形
 40
0.035278
 41
0.035278
 66
1
 10
0
 20
0
 30
0
  0
VERTEX
  8
31 地形
 10
-316.968351
 20
307.860495
  0
VERTEX
  8
31 地形
 10
-314.614303
 20
297.864488
  0
VERTEX
  8
31 地形
 10
-312.100745
 20
298.570048
  0
VERTEX
  8
31 地形
 10
-310.557333
 20
301.921458
  0
VERTEX
  8
31 地形
 10
-309.851773
 20
301.613120
  0
VERTEX
  8
31 地形
 10
-311.659770
 20
297.688098
  0
VERTEX
  8
31 地形
 10
-314.003828
 20
297.035592
  0
VERTEX
  8
31 地形
 10
-310.635881
 20
282.231924
  0
VERTEX
  8
31 地形
 10
-318.057353
 20
282.619844
  0
VERTEX
  8
31 地形
 10
-325.181166
 20
286.660966
  0
VERTEX
  8
31 地形
 10
-337.372747
 20
284.674512
  0
VERTEX
  8
31 地形
 10
-338.194752
 20
285.222975
  0
VERTEX
  8
31 地形
 10
-344.564774
 20
283.853196
  0
VERTEX
  8
31 地形
 10
-358.126822
 20
292.962775
  0
VERTEX
  8
31 地形
 10
-357.784377
 20
293.373433
  0
VERTEX
  8
31 地形
 10
-362.834919
 20
296.755849
  0
VERTEX
  8
31 地形
 10
-365.455964
 20
298.510792
  0
VERTEX
  8
31 地形
 10
-365.866278
 20
298.031231
  0
VERTEX
  8
31 地形
 10
-370.455518
 20
300.976806
  0
VERTEX
  8
31 地形
 10
-370.044171
 20
301.455678
  0
VERTEX
  8
31 地形
 10
-377.167985
 20
305.839245
  0
VERTEX
  8
31 地形
 10
-376.893753
 20
307.825699
  0
VERTEX
  8
31 地形
 10
-376.937162
 20
307.860495
  0
SEQEND
  0
POLYLINE
  8
31 地形
 40
0.035278
 41
0.035278
 66
1
 10
0
 20
0
 30
0
  0
VERTEX
  8
31 地形
 10
-284.247662
 20
243.166706
  0
VERTEX
  8
31 地形
 10
-284.297272
 20
243.091947
  0
VERTEX
  8
31 地形
 10
-284.247662
 20
243.056463
  0
SEQEND
  0
POLYLINE
  8
31 地形
 40
0.035278
 41
0.035278
 66
1
 10
0
 20
0
 30
0
  0
VERTEX
  8
31 地形
 10
-284.247662
 20
301.761260
  0
VERTEX
  8
31 地形
 10
-302.090613
 20
273.802067
  0
VERTEX
  8
31 地形
 10
-301.443620
 20
273.361092
  0
VERTEX
  8
31 地形
 10
-304.868755
 20
267.922630
  0
VERTEX
  8
31 地形
 10
-312.253019
 20
273.036217
  0
VERTEX
  8
31 地形
 10
-313.624176
 20
273.504064
  0
VERTEX
  8
31 地形
 10
-313.746133
 20
273.176778
  0
VERTEX
  8
31 地形
 10
-312.477641
 20
272.789547
  0
VERTEX
  8
31 地形
 10
-308.179513
 20
269.741996
  0
VERTEX
  8
31 地形
 10
-308.479238
 20
269.248655
  0
VERTEX
  8
31 地形
 10
-307.757142
 20
268.755314
  0
VERTEX
  8
31 地形
 10
-308.469592
 20
267.716612
  0
VERTEX
  8
31 地形
 10
-309.102115
 20
268.187215
  0
VERTEX
  8
31 地形
 10
-309.939968
 20
267.040680
  0
VERTEX
  8
31 地形
 10
-312.585818
 20
268.804580
  0
VERTEX
  8
31 地形
 10
-312.894500
 20
268.407358
  0
VERTEX
  8
31 地形
 10
-309.659535
 20
266.236934
  0
VERTEX
  8
31 地形
 10
-309.058018
 20
267.128875
  0
VERTEX
  8
31 地形
 10
-306.691222
 20
265.459715
  0
VERTEX
  8
31 地形
 10
-313.379573
 20
255.192922
  0
VERTEX
  8
31 地形
 10
-324.374320
 20
262.013565
  0
VERTEX
  8
31 地形
 10
-320.140960
 20
268.951342
  0
VERTEX
  8
31 地形
 10
-318.964797
 20
268.245782
  0
VERTEX
  8
31 地形
 10
-318.377060
 20
269.245555
  0
VERTEX
  8
31 地形
 10
-320.258783
 20
270.480285
  0
VERTEX
  8
31 地形
 10
-320.493740
 20
270.068593
  0
VERTEX
  8
31 地形
 10
-321.199300
 20
270.538852
  0
VERTEX
  8
31 地形
 10
-322.316207
 20
271.479713
  0
VERTEX
  8
31 地形
 10
-322.610420
 20
272.596965
  0
VERTEX
  8
31 地形
 10
-322.316207
 20
275.713073
  0
VERTEX
  8
31 地形
 10
-322.434030
 20
276.359722
  0
VERTEX
  8
31 地形
 10
-332.699101
 20
282.465503
  0
VERTEX
  8
31 地形
 10
-337.214272
 20
281.662790
  0
VERTEX
  8
31 地形
 10
-335.223683
 20
270.701806
  0
VERTEX
  8
31 地形
 10
-336.133883
 20
269.010253
  0
VERTEX
  8
31 地形
 10
-359.417363
 20
282.533372
  0
VERTEX
  8
31 地形
 10
-358.711803
 20
284.120882
  0
VERTEX
  8
31 地形
 10
-362.415993
 20
286.413952
  0
VERTEX
  8
31 地形
 10
-363.474333
 20
284.415095
  0
VERTEX
  8
31 地形
 10
-369.000990
 20
288.119285
  0
VERTEX
  8
31 地形
 10
-366.531530
 20
292.822903
  0
VERTEX
  8
31 地形
 10
-383.641360
 20
302.054095
  0
VERTEX
  8
31 地形
 10
-389.462230
 20
302.054095
  0
VERTEX
  8
31 地形
 10
-390.344180
 20
300.348762
  0
VERTEX
  8
31 地形
 10
-390.402747
 20
299.231855
  0
VERTEX
  8
31 地形
 10
-392.108080
 20
296.879873
  0
VERTEX
  8
31 地形
 10
-406.689883
 20
297.232653
  0
VERTEX
  8
31 地形
 10
-410.158427
 20
297.938213
  0
VERTEX
  8
31 地形
 10
-410.276250
 20
297.526522
  0
VERTEX
  8
31 地形
 10
-406.748450
 20
296.527093
  0
VERTEX
  8
31 地形
 10
-406.748450
 20
294.590937
  0
VERTEX
  8
31 地形
 10
-414.818981
 20
294.590937
  0
VERTEX
  8
31 地形
 10
-414.818981
 20
284.966658
  0
VERTEX
  8
31 地形
 10
-413.841946
 20
283.060819
  0
VERTEX
  8
31 地形
 10
-413.841946
 20
276.079633
  0
VERTEX
  8
31 地形
 10
-414.242958
 20
276.045871
  0
VERTEX
  8
31 地形
 10
-414.242958
 20
274.408063
  0
VERTEX
  8
31 地形
 10
-413.841946
 20
274.008085
  0
VERTEX
  8
31 地形
 10
-413.767876
 20
269.511862
  0
VERTEX
  8
31 地形
 10
-419.353789
 20
269.508417
  0
VERTEX
  8
31 地形
 10
-418.971381
 20
279.543354
  0
VERTEX
  8
31 地形
 10
-418.385022
 20
280.226866
  0
VERTEX
  8
31 地形
 10
-419.801999
 20
286.431866
  0
VERTEX
  8
31 地形
 10
-420.925796
 20
289.362627
  0
VERTEX
  8
31 地形
 10
-421.951752
 20
290.779949
  0
VERTEX
  8
31 地形
 10
-423.417305
 20
293.564292
  0
VERTEX
  8
31 地形
 10
-423.466225
 20
296.104722
  0
VERTEX
  8
31 地形
 10
-422.440270
 20
296.153642
  0
VERTEX
  8
31 地形
 10
-421.888362
 20
299.172943
  0
VERTEX
  8
31 地形
 10
-419.624920
 20
299.643202
  0
VERTEX
  8
31 地形
 10
-419.418902
 20
300.819365
  0
VERTEX
  8
31 地形
 10
-419.889505
 20
301.407102
  0
VERTEX
  8
31 地形
 10
-421.242058
 20
301.201428
  0
VERTEX
  8
31 地形
 10
-419.083347
 20
307.860495
  0
SEQEND
  0
POLYLINE
  8
31 地形
 40
0.035278
 41
0.035278
 66
1
 10
0
 20
0
 30
0
  0
VERTEX
  8
31 地形
 10
-284.247662
 20
284.193918
  0
VERTEX
  8
31 地形
 10
-294.594382
 20
267.820310
  0
VERTEX
  8
31 地形
 10
-292.911787
 20
266.624165
  0
VERTEX
  8
31 地形
 10
-291.961968
 20
266.545616
  0
VERTEX
  8
31 地形
 10
-291.890310
 20
265.815940
  0
VERTEX
  8
31 地形
 10
-290.038215
 20
264.619796
  0
VERTEX
  8
31 地形
 10
-288.432101
 20
261.322819
  0
VERTEX
  8
31 地形
 10
-288.731826
 20
261.171922
  0
VERTEX
  8
31 地形
 10
-288.832424
 20
261.451666
  0
VERTEX
  8
31 地形
 10
-288.802796
 20
261.551574
  0
VERTEX
  8
31 地形
 10
-290.258358
 20
264.448918
  0
VERTEX
  8
31 地形
 10
-290.608382
 20
264.698344
  0
VERTEX
  8
31 地形
 10
-290.787872
 20
264.428247
  0
VERTEX
  8
31 地形
 10
-290.684863
 20
264.365546
  0
VERTEX
  8
31 地形
 10
-291.651908
 20
262.864164
  0
VERTEX
  8
31 地形
 10
-291.985395
 20
263.095676
  0
VERTEX
  8
31 地形
 10
-290.987689
 20
264.548137
  0
VERTEX
  8
31 地形
 10
-290.858153
 20
264.497839
  0
VERTEX
  8
31 地形
 10
-290.687964
 20
264.748643
  0
VERTEX
  8
31 地形
 10
-293.892612
 20
266.771616
  0
VERTEX
  8
31 地形
 10
-296.254584
 20
263.087408
  0
VERTEX
  8
31 地形
 10
-298.587618
 20
264.603259
  0
VERTEX
  8
31 地形
 10
-302.068564
 20
259.191325
  0
VERTEX
  8
31 地形
 10
-298.621380
 20
256.919270
  0
VERTEX
  8
31 地形
 10
-298.959690
 20
256.369085
  0
VERTEX
  8
31 地形
 10
-302.397917
 20
258.645273
  0
VERTEX
  8
31 地形
 10
-304.119098
 20
255.957393
  0
VERTEX
  8
31 地形
 10
-303.420428
 20
255.523997
  0
VERTEX
  8
31 地形
 10
-304.626219
 20
253.656744
  0
VERTEX
  8
31 地形
 10
-304.215561
 20
253.372866
  0
VERTEX
  8
31 地形
 10
-305.618413
 20
251.459448
  0
VERTEX
  8
31 地形
 10
-305.982906
 20
251.668911
  0
VERTEX
  8
31 地形
 10
-306.382540
 20
251.106668
  0
VERTEX
  8
31 地形
 10
-304.919743
 20
250.162017
  0
VERTEX
  8
31 地形
 10
-305.318688
 20
249.580481
  0
VERTEX
  8
31 地形
 10
-301.473592
 20
246.946345
  0
VERTEX
  8
31 地形
 10
-300.684316
 20
248.121129
  0
VERTEX
  8
31 地形
 10
-300.364265
 20
247.922002
  0
VERTEX
  8
31 地形
 10
-301.153196
 20
246.676936
  0
VERTEX
  8
31 地形
 10
-299.209117
 20
245.315082
  0
VERTEX
  8
31 地形
 10
-295.261701
 20
250.869644
  0
VERTEX
  8
31 地形
 10
-286.670268
 20
244.707018
  0
VERTEX
  8
31 地形
 10
-286.320589
 20
245.187957
  0
VERTEX
  8
31 地形
 10
-285.851364
 20
245.458743
  0
VERTEX
  8
31 地形
 10
-285.421758
 20
245.489060
  0
VERTEX
  8
31 地形
 10
-284.851246
 20
245.310603
  0
VERTEX
  8
31 地形
 10
-284.400625
 20
245.061865
  0
VERTEX
  8
31 地形
 10
-284.247662
 20
244.829665
  0
SEQEND
  0
POLYLINE
  8
31 地形
 40
0.035278
 41
0.035278
 66
1
 10
0
 20
0
 30
0
  0
VERTEX
  8
31 地形
 10
-395.419526
 20
307.860495
  0
VERTEX
  8
31 地形
 10
-395.489118
 20
305.846480
  0
VERTEX
  8
31 地形
 10
-394.783558
 20
304.964530
  0
VERTEX
  8
31 地形
 10
-388.080738
 20
305.934675
  0
VERTEX
  8
31 地形
 10
-384.288353
 20
305.934675
  0
VERTEX
  8
31 地形
 10
-379.261238
 20
304.964530
  0
VERTEX
  8
31 地形
 10
-378.643873
 20
306.111065
  0
VERTEX
  8
31 地形
 10
-379.173043
 20
307.522185
  0
VERTEX
  8
31 地形
 10
-380.338181
 20
307.860495
  0
SEQEND
  0
POLYLINE
  8
31 地形
 40
0.035278
 41
0.035278
 66
1
 10
0
 20
0
 30
0
 70
1
  0
VERTEX
  8
31 地形
 10
-413.833678
 20
302.936045
  0
VERTEX
  8
31 地形
 10
-414.274653
 20
301.524925
  0
VERTEX
  8
31 地形
 10
-413.304508
 20
300.290195
  0
VERTEX
  8
31 地形
 10
-398.840528
 20
303.906190
  0
VERTEX
  8
31 地形
 10
-399.281503
 20
305.405505
  0
VERTEX
  8
31 地形
 10
-400.075258
 20
306.463845
  0
SEQEND
  0
POLYLINE
  8
32 海・河川
 40
0.035278
 41
0.035278
 62
150
 66
1
 10
0
 20
0
 30
0
  0
VERTEX
  8
32 海・河川
 10
-284.247662
 20
243.166706
  0
VERTEX
  8
32 海・河川
 10
-284.297272
 20
243.091947
  0
VERTEX
  8
32 海・河川
 10
-284.247662
 20
243.056463
  0
SEQEND
  0
POLYLINE
  8
32 海・河川
 40
0.035278
 41
0.035278
 62
150
 66
1
 10
0
 20
0
 30
0
  0
VERTEX
  8
32 海・河川
 10
-284.247662
 20
284.193918
  0
VERTEX
  8
32 海・河川
 10
-294.594382
 20
267.820310
  0
VERTEX
  8
32 海・河川
 10
-292.911787
 20
266.624165
  0
VERTEX
  8
32 海・河川
 10
-291.961968
 20
266.545616
  0
VERTEX
  8
32 海・河川
 10
-291.890310
 20
265.815940
  0
VERTEX
  8
32 海・河川
 10
-290.038215
 20
264.619796
  0
VERTEX
  8
32 海・河川
 10
-288.432101
 20
261.322819
  0
VERTEX
  8
32 海・河川
 10
-288.731826
 20
261.171922
  0
VERTEX
  8
32 海・河川
 10
-288.832424
 20
261.451666
  0
VERTEX
  8
32 海・河川
 10
-288.802796
 20
261.551574
  0
VERTEX
  8
32 海・河川
 10
-290.258358
 20
264.448918
  0
VERTEX
  8
32 海・河川
 10
-290.608382
 20
264.698344
  0
VERTEX
  8
32 海・河川
 10
-290.787872
 20
264.428247
  0
VERTEX
  8
32 海・河川
 10
-290.684863
 20
264.365546
  0
VERTEX
  8
32 海・河川
 10
-291.651908
 20
262.864164
  0
VERTEX
  8
32 海・河川
 10
-291.985395
 20
263.095676
  0
VERTEX
  8
32 海・河川
 10
-290.987689
 20
264.548137
  0
VERTEX
  8
32 海・河川
 10
-290.858153
 20
264.497839
  0
VERTEX
  8
32 海・河川
 10
-290.687964
 20
264.748643
  0
VERTEX
  8
32 海・河川
 10
-293.892612
 20
266.771616
  0
VERTEX
  8
32 海・河川
 10
-296.254584
 20
263.087408
  0
VERTEX
  8
32 海・河川
 10
-298.587618
 20
264.603259
  0
VERTEX
  8
32 海・河川
 10
-302.068564
 20
259.191325
  0
VERTEX
  8
32 海・河川
 10
-298.621380
 20
256.919270
  0
VERTEX
  8
32 海・河川
 10
-298.959690
 20
256.369085
  0
VERTEX
  8
32 海・河川
 10
-302.397917
 20
258.645273
  0
VERTEX
  8
32 海・河川
 10
-304.119098
 20
255.957393
  0
VERTEX
  8
32 海・河川
 10
-303.420428
 20
255.523997
  0
VERTEX
  8
32 海・河川
 10
-304.626219
 20
253.656744
  0
VERTEX
  8
32 海・河川
 10
-304.215561
 20
253.372866
  0
VERTEX
  8
32 海・河川
 10
-305.618413
 20
251.459448
  0
VERTEX
  8
32 海・河川
 10
-305.982906
 20
251.668911
  0
VERTEX
  8
32 海・河川
 10
-306.382540
 20
251.106668
  0
VERTEX
  8
32 海・河川
 10
-304.919743
 20
250.162017
  0
VERTEX
  8
32 海・河川
 10
-305.318688
 20
249.580481
  0
VERTEX
  8
32 海・河川
 10
-301.473592
 20
246.946345
  0
VERTEX
  8
32 海・河川
 10
-300.684316
 20
248.121129
  0
VERTEX
  8
32 海・河川
 10
-300.364265
 20
247.922002
  0
VERTEX
  8
32 海・河川
 10
-301.153196
 20
246.676936
  0
VERTEX
  8
32 海・河川
 10
-299.209117
 20
245.315082
  0
VERTEX
  8
32 海・河川
 10
-295.261701
 20
250.869644
  0
VERTEX
  8
32 海・河川
 10
-286.670268
 20
244.707018
  0
VERTEX
  8
32 海・河川
 10
-286.320589
 20
245.187957
  0
VERTEX
  8
32 海・河川
 10
-285.851364
 20
245.458743
  0
VERTEX
  8
32 海・河川
 10
-285.421758
 20
245.489060
  0
VERTEX
  8
32 海・河川
 10
-284.851246
 20
245.310603
  0
VERTEX
  8
32 海・河川
 10
-284.400625
 20
245.061865
  0
VERTEX
  8
32 海・河川
 10
-284.247662
 20
244.829665
  0
SEQEND
  0
POLYLINE
  8
32 海・河川
 40
0.035278
 41
0.035278
 62
150
 66
1
 10
0
 20
0
 30
0
  0
VERTEX
  8
32 海・河川
 10
-284.247662
 20
301.761260
  0
VERTEX
  8
32 海・河川
 10
-302.090613
 20
273.802067
  0
VERTEX
  8
32 海・河川
 10
-301.443620
 20
273.361092
  0
VERTEX
  8
32 海・河川
 10
-304.868755
 20
267.922630
  0
VERTEX
  8
32 海・河川
 10
-312.253019
 20
273.036217
  0
VERTEX
  8
32 海・河川
 10
-313.624176
 20
273.504064
  0
VERTEX
  8
32 海・河川
 10
-313.746133
 20
273.176778
  0
VERTEX
  8
32 海・河川
 10
-312.477641
 20
272.789547
  0
VERTEX
  8
32 海・河川
 10
-308.179513
 20
269.741996
  0
VERTEX
  8
32 海・河川
 10
-308.479238
 20
269.248655
  0
VERTEX
  8
32 海・河川
 10
-307.757142
 20
268.755314
  0
VERTEX
  8
32 海・河川
 10
-308.469592
 20
267.716612
  0
VERTEX
  8
32 海・河川
 10
-309.102115
 20
268.187215
  0
VERTEX
  8
32 海・河川
 10
-309.939968
 20
267.040680
  0
VERTEX
  8
32 海・河川
 10
-312.585818
 20
268.804580
  0
VERTEX
  8
32 海・河川
 10
-312.894500
 20
268.407358
  0
VERTEX
  8
32 海・河川
 10
-309.659535
 20
266.236934
  0
VERTEX
  8
32 海・河川
 10
-309.058018
 20
267.128875
  0
VERTEX
  8
32 海・河川
 10
-306.691222
 20
265.459715
  0
VERTEX
  8
32 海・河川
 10
-313.379573
 20
255.192922
  0
VERTEX
  8
32 海・河川
 10
-324.374320
 20
262.013565
  0
VERTEX
  8
32 海・河川
 10
-320.140960
 20
268.951342
  0
VERTEX
  8
32 海・河川
 10
-318.964797
 20
268.245782
  0
VERTEX
  8
32 海・河川
 10
-318.377060
 20
269.245555
  0
VERTEX
  8
32 海・河川
 10
-320.258783
 20
270.480285
  0
VERTEX
  8
32 海・河川
 10
-320.493740
 20
270.068593
  0
VERTEX
  8
32 海・河川
 10
-321.199300
 20
270.538852
  0
VERTEX
  8
32 海・河川
 10
-322.316207
 20
271.479713
  0
VERTEX
  8
32 海・河川
 10
-322.610420
 20
272.596965
  0
VERTEX
  8
32 海・河川
 10
-322.316207
 20
275.713073
  0
VERTEX
  8
32 海・河川
 10
-322.434030
 20
276.359722
  0
VERTEX
  8
32 海・河川
 10
-332.699101
 20
282.465503
  0
VERTEX
  8
32 海・河川
 10
-337.214272
 20
281.662790
  0
VERTEX
  8
32 海・河川
 10
-335.223683
 20
270.701806
  0
VERTEX
  8
32 海・河川
 10
-336.133883
 20
269.010253
  0
VERTEX
  8
32 海・河川
 10
-359.417363
 20
282.533372
  0
VERTEX
  8
32 海・河川
 10
-358.711803
 20
284.120882
  0
VERTEX
  8
32 海・河川
 10
-362.415993
 20
286.413952
  0
VERTEX
  8
32 海・河川
 10
-363.474333
 20
284.415095
  0
VERTEX
  8
32 海・河川
 10
-369.000990
 20
288.119285
  0
VERTEX
  8
32 海・河川
 10
-366.531530
 20
292.822903
  0
VERTEX
  8
32 海・河川
 10
-383.641360
 20
302.054095
  0
VERTEX
  8
32 海・河川
 10
-389.462230
 20
302.054095
  0
VERTEX
  8
32 海・河川
 10
-390.344180
 20
300.348762
  0
VERTEX
  8
32 海・河川
 10
-390.402747
 20
299.231855
  0
VERTEX
  8
32 海・河川
 10
-392.108080
 20
296.879873
  0
VERTEX
  8
32 海・河川
 10
-406.689883
 20
297.232653
  0
VERTEX
  8
32 海・河川
 10
-410.158427
 20
297.938213
  0
VERTEX
  8
32 海・河川
 10
-410.276250
 20
297.526522
  0
VERTEX
  8
32 海・河川
 10
-406.748450
 20
296.527093
  0
VERTEX
  8
32 海・河川
 10
-406.748450
 20
294.590937
  0
VERTEX
  8
32 海・河川
 10
-414.818981
 20
294.590937
  0
VERTEX
  8
32 海・河川
 10
-414.818981
 20
284.966658
  0
VERTEX
  8
32 海・河川
 10
-413.841946
 20
283.060819
  0
VERTEX
  8
32 海・河川
 10
-413.841946
 20
276.079633
  0
VERTEX
  8
32 海・河川
 10
-414.242958
 20
276.045871
  0
VERTEX
  8
32 海・河川
 10
-414.242958
 20
274.408063
  0
VERTEX
  8
32 海・河川
 10
-413.841946
 20
274.008085
  0
VERTEX
  8
32 海・河川
 10
-413.767876
 20
269.511862
  0
VERTEX
  8
32 海・河川
 10
-419.353789
 20
269.508417
  0
VERTEX
  8
32 海・河川
 10
-418.971381
 20
279.543354
  0
VERTEX
  8
32 海・河川
 10
-418.385022
 20
280.226866
  0
VERTEX
  8
32 海・河川
 10
-419.801999
 20
286.431866
  0
VERTEX
  8
32 海・河川
 10
-420.925796
 20
289.362627
  0
VERTEX
  8
32 海・河川
 10
-421.951752
 20
290.779949
  0
VERTEX
  8
32 海・河川
 10
-423.417305
 20
293.564292
  0
VERTEX
  8
32 海・河川
 10
-423.466225
 20
296.104722
  0
VERTEX
  8
32 海・河川
 10
-422.440270
 20
296.153642
  0
VERTEX
  8
32 海・河川
 10
-421.888362
 20
299.172943
  0
VERTEX
  8
32 海・河川
 10
-419.624920
 20
299.643202
  0
VERTEX
  8
32 海・河川
 10
-419.418902
 20
300.819365
  0
VERTEX
  8
32 海・河川
 10
-419.889505
 20
301.407102
  0
VERTEX
  8
32 海・河川
 10
-421.242058
 20
301.201428
  0
VERTEX
  8
32 海・河川
 10
-419.083347
 20
307.860495
  0
SEQEND
  0
POLYLINE
  8
32 海・河川
 40
0.035278
 41
0.035278
 62
150
 66
1
 10
0
 20
0
 30
0
 70
1
  0
VERTEX
  8
32 海・河川
 10
-413.304508
 20
300.290195
  0
VERTEX
  8
32 海・河川
 10
-414.274653
 20
301.524925
  0
VERTEX
  8
32 海・河川
 10
-413.833678
 20
302.936045
  0
VERTEX
  8
32 海・河川
 10
-400.075258
 20
306.463845
  0
VERTEX
  8
32 海・河川
 10
-399.281503
 20
305.405505
  0
VERTEX
  8
32 海・河川
 10
-398.840528
 20
303.906190
  0
SEQEND
  0
POLYLINE
  8
32 海・河川
 40
0.035278
 41
0.035278
 62
150
 66
1
 10
0
 20
0
 30
0
  0
VERTEX
  8
32 海・河川
 10
-395.419526
 20
307.860495
  0
VERTEX
  8
32 海・河川
 10
-395.489118
 20
305.846480
  0
VERTEX
  8
32 海・河川
 10
-394.783558
 20
304.964530
  0
VERTEX
  8
32 海・河川
 10
-388.080738
 20
305.934675
  0
VERTEX
  8
32 海・河川
 10
-384.288353
 20
305.934675
  0
VERTEX
  8
32 海・河川
 10
-379.261238
 20
304.964530
  0
VERTEX
  8
32 海・河川
 10
-378.643873
 20
306.111065
  0
VERTEX
  8
32 海・河川
 10
-379.173043
 20
307.522185
  0
VERTEX
  8
32 海・河川
 10
-380.338181
 20
307.860495
  0
SEQEND
  0
POLYLINE
  8
32 海・河川
 40
0.035278
 41
0.035278
 62
150
 66
1
 10
0
 20
0
 30
0
  0
VERTEX
  8
32 海・河川
 10
-316.968351
 20
307.860495
  0
VERTEX
  8
32 海・河川
 10
-314.614303
 20
297.864488
  0
VERTEX
  8
32 海・河川
 10
-312.100745
 20
298.570048
  0
VERTEX
  8
32 海・河川
 10
-310.557333
 20
301.921458
  0
VERTEX
  8
32 海・河川
 10
-309.851773
 20
301.613120
  0
VERTEX
  8
32 海・河川
 10
-311.659770
 20
297.688098
  0
VERTEX
  8
32 海・河川
 10
-314.003828
 20
297.035592
  0
VERTEX
  8
32 海・河川
 10
-310.635881
 20
282.231924
  0
VERTEX
  8
32 海・河川
 10
-318.057353
 20
282.619844
  0
VERTEX
  8
32 海・河川
 10
-325.181166
 20
286.660966
  0
VERTEX
  8
32 海・河川
 10
-337.372747
 20
284.674512
  0
VERTEX
  8
32 海・河川
 10
-338.194752
 20
285.222975
  0
VERTEX
  8
32 海・河川
 10
-344.564774
 20
283.853196
  0
VERTEX
  8
32 海・河川
 10
-358.126822
 20
292.962775
  0
VERTEX
  8
32 海・河川
 10
-357.784377
 20
293.373433
  0
VERTEX
  8
32 海・河川
 10
-362.834919
 20
296.755849
  0
VERTEX
  8
32 海・河川
 10
-365.455964
 20
298.510792
  0
VERTEX
  8
32 海・河川
 10
-365.866278
 20
298.031231
  0
VERTEX
  8
32 海・河川
 10
-370.455518
 20
300.976806
  0
VERTEX
  8
32 海・河川
 10
-370.044171
 20
301.455678
  0
VERTEX
  8
32 海・河川
 10
-377.167985
 20
305.839245
  0
VERTEX
  8
32 海・河川
 10
-376.893753
 20
307.825699
  0
VERTEX
  8
32 海・河川
 10
-376.937162
 20
307.860495
  0
SEQEND
  0
ENDSEC
  0
EOF
